Informativa
Questo sito raccoglie dati statistici anonimi sulla navigazione, mediante cookie installati da terze parti autorizzate, rispettando la privacy dei tuoi dati personali e secondo le norme previste dalla legge. Continuando a navigare su questo sito, cliccando sulla pagina o semplicemente scrollando la pagina verso il basso, accetti il servizio, gli stessi cookie e rimuovi il messaggio.

    Maggiori informazioni.
A5
Home Tutti A-Z Testi Italiani A-Z Testi Stranieri A-Z Chiedi allo staff Drrunaway 19 Anni Fa
 Musica Tradizionale
Nuovi Artisti
1. Michael McDonald
2. Toninho Horta
3. Smooth Jazz vari
4. Double
5. Bronski Beat
6. Al Jarreau
7. Etta James
8. The Queen
9. The Isley Brothers
10. Spyro Gyra
11. Sister Sledge
12. Kool & the Gang
13. KC & the Sunshine Band
14. Earth Wind & Fire
15. Joe Sentieri
Nuovi Testi/Accordi
1. You Belong To Me
2. Sweet Freedom
3. Tuesday Heartbreaker
4. Love two times
5. It's just a thoght chords
6. I Say a little prayer
7. Cocaine - Clapton
8. Gigi (Concato) - vs. Live
9. Bejo Partido
10. Moby Dick



MUSICA TRADIZIONALE - Accordi - Kemps Jig
Gestisci
--Key----Delay----Bpm: 72---Guitar--Piano-
Received: from animal-farm.nevada.edu by redrock.nevada.edu (5.65c/M1.4)
with SMTP id :AA21300:; Wed, 10 Nov 1993 20:04:08 -0800
V1.1d/1.7f) with BSMTP id 0837; Wed, 10 Nov 1993 21:05:16 -0700
Content-Transfer-Encoding: 7BIT

Kemp's Jig
Traditional

d,P = half note, d.,P. = dotted half note, o = whole note, | = quarter note, |.

__ __
|. | | | |. | | | | | | | | d.
|-2-----3-2---0---|-----------------|-----------------|-----------------|
|-3---------------|-3-----5-3---2---|-0-------0---2---|-3---------------|
|-2---------------|-----------------|-----2-----------|-2---2-----------|
|-0-------0-------|-4---------------|-----------------|-0---------0-----|
|-------------4---|-2-------2---0---|-----------------|-----------------|
|-----------------|-----------------|-3---2---0-------|-----------------|
P | | P | | | | P P P

_____ _____ _____
| | | | | | | | | | | | | | | | | | | d.
|-2-0-2-3-2---0---|-------0---------|-----------------|-----------------|
|---------3-------|-3-2-3---3---2---|-0-------0---0-2-|-3---------------|
|---------2---2---|-----------------|-----2-----2-----|-2---2-----------|
|-0-------0-------|-----------------|-----------------|-0-------0-------|
|-------------4---|-2-------2---0---|-----------------|-----------------|
|-----------------|-----------------|-3---2---0-------|-----------------|
P | | P | | | | P P P

_ _
| | | | | | | | r | | | | | | | | |
|-2---5---2---5---|-2---5-3-2-------|-0---3---0---3---|-0---------------|
|-----------------|-----------3-----|-----------------|-----3-1-0---2---|
|-----------------|-----------------|-0-------0-------|-0---------------|
|-0-------0-------|-0---------------|-----------------|-----------------|
|-----------------|-----------------|-3-------3-------|-3-----------0---|
|-----------------|-----------------|-----------------|---------3-------|
P P P r r P P P | |

_
| | | | | | | | | | | | | o
|-----------------|-----------------|-----------------|-----------------|
|-3---------------|-3---------------|-0-------0---2---|-3---------------|
|-----2-------2---|-----2-0-----2---|-0---2---0-------|-----2-----------|
|-0-------4-------|-0-------4-------|-----------------|-0-------0-------|
|---------5-------|---------5-------|-----------------|-----------------|
|-----------------|-----------------|-3---2---0-------|-----------------|
| | | | P P | | P | | P

_ _____ _ _
| | | | | | | | | | | | | | | | | | | | |
|-2---5---2-3-5---|-2---5-3-2-0-----|-0---3---0-1-3---|-0---------------|
|-----------------|-------------3---|-----------------|-----3-1-0---2---|
|-----------------|-----------------|-0-------0-------|-0---------------|
|-0-------0-------|-0---------------|-----------------|-----------------|
|-----------------|-----------------|-3-------3-------|-3-----------0---|
|-----------------|-----------------|-----------------|---------3-------|
P P P r r P P P | |

__ _____ __ _____
| | |.=| | | | | | |.=| | | | | | | | o
|-----------------|-----------------|-----------------|-----------------|
|-3---------------|-3---0-----------|-0-------0---0-2-|-3---------------|
|-----2------0-2--|---2---2----0-2--|-----2-----2-----|-----2-----------|
|-0-------4-------|-0-------4-------|-----------------|-0-------0-------|
|---------5-------|---------5-------|-----------------|-----------------|
|-----------------|-----------------|-3---2---0-------|-----------------|
P P P P | | P | | P

\|||/
\\_:_:_//
\ /
mwmwmwmwmwmwmwmwmwmwmwmwmwmwmwmwmwmwmwmwmwmwmwmwmwmwmwm | |
| | |___|
| "When the doors of perception are cleansed things | / _ \
| will appear as they truly are..." - William Blake | / / \ \
| | \_\ /_/
wmwmwmwmwmwmwmwmwmwmwmwmwmwmwmwmwmwmwmwmwmwmwmwmwmwmwmw /_| |_\





Engine © 1999 - 2019 - Land63.com. e-mail:  Privacy | Norme sulla legalità