Informativa
Questo sito raccoglie dati statistici anonimi sulla navigazione, mediante cookie installati da terze parti autorizzate, rispettando la privacy dei tuoi dati personali e secondo le norme previste dalla legge. Continuando a navigare su questo sito, cliccando sulla pagina o semplicemente scrollando la pagina verso il basso, accetti il servizio, gli stessi cookie e rimuovi il messaggio.

    Maggiori informazioni.
A5
Home Tutti A-Z Testi Italiani A-Z Testi Stranieri A-Z Chiedi allo staff Drrunaway 19 Anni Fa
 The Doors
Nuovi Artisti
1. Michael McDonald
2. Toninho Horta
3. Smooth Jazz vari
4. Double
5. Bronski Beat
6. Al Jarreau
7. Etta James
8. The Queen
9. The Isley Brothers
10. Spyro Gyra
11. Sister Sledge
12. Kool & the Gang
13. KC & the Sunshine Band
14. Earth Wind & Fire
15. Joe Sentieri
Nuovi Testi/Accordi
1. You Belong To Me
2. Sweet Freedom
3. Tuesday Heartbreaker
4. Love two times
5. It's just a thoght chords
6. I Say a little prayer
7. Cocaine - Clapton
8. Gigi (Concato) - vs. Live
9. Bejo Partido
10. Moby Dick



THE DOORS - Accordi - Love two times
Gestisci
--Key----Delay----Bpm: 72---Guitar--Piano-
The Doors - Love two times
---------------------------------------



Love me two times baby, love me twice today

Love me two times girl

I'm goin' away

Love me two times girl

One for tomorrow, one just for today


Love me two times I'm goin' away


Love me one time, could not speak

Love me one time

Yeah, my knees got weak

Love me two times girl

Last me all through the week


Love me two times I'm goin' away

Love me two times I'm goin' away

Strumentale:









Love me one time, could not speak

Love me one time baby

Yeah, my knees got weak

Love me two times girl

Last me all through the week


Love me two times I'm goin' away

Love me two times I'm goin' away


Love me two times baby, love me twice today

Love me two times girl

I'm goin' away

Love me two times girl

One for tomorrow, one just for today


Love me two times I'm goin' away

Love me two times I'm goin' away

Love me two times I'm goin' away


Tablatura:


e----------------------------------------------------|
b----------------------------------------------------|
g------------------------------0t1---------0t1-------|
d-----0-----2-----0--2-------------------------------|
a--2-----2-----2(0)------2--2--------2--2------------|
e------------------------0--0--------------------0---|


e---------5---------------|------------------2---2-----|
b---5-----------8vvvv-----|------3---------1---1-------|
g---6--6-----6------------|----2---2-----2---------2---|
d-------------------------|--0---------0---------------|
a-------------------------|----------------------------|
e-------------------------|----------------------------|

e--------------------------------------3--3--3--3--3----------|
b--------------------------------------5--5--5--5--5---3--3---|
g-------------------7b9--7--5vvv-------3--3--3--3--3---4--4---|
d--------------------------------------5--5--5--5--5---5--5---|
a--------------------------------------3--3--3--3--3---5--5---|
e-------------------------------------------------------------|
One for tomorrow, one just for today


e------------------------------------------------------------------------|
b---7--7--\5--5--4---4-----------------------|--8-8-8-8-8-8-8-8-8-8-8-8--|
g---5--5--\3--3--2---2--1--------------------|--7-7-7-7-7-7-7-7-7-7-7-7--|
d---7--7--\5--5--4---4--0--2----0---2---0-2--|--6-6-6-6-6-6-6-6-6-6-6-6--|
a-----------------------2--2--2---2---2------|--7-7-7-7-7-7-7-7-7-7-7-7--|
e-----------------------0--------------------|---------------------------|





Engine © 1999 - 2019 - Land63.com. e-mail:  Privacy | Norme sulla legalità