Informativa
Questo sito raccoglie dati statistici anonimi sulla navigazione, mediante cookie installati da terze parti autorizzate, rispettando la privacy dei tuoi dati personali e secondo le norme previste dalla legge. Continuando a navigare su questo sito, cliccando sulla pagina o semplicemente scrollando la pagina verso il basso, accetti il servizio, gli stessi cookie e rimuovi il messaggio.

    Maggiori informazioni.
A11
Home Tutti A-Z Testi Italiani A-Z Testi Stranieri A-Z Chiedi allo staff Drrunaway 19 Anni Fa
 CCCP
Nuovi Artisti
1. Michael McDonald
2. Toninho Horta
3. Smooth Jazz vari
4. Double
5. Bronski Beat
6. Al Jarreau
7. Etta James
8. The Queen
9. The Isley Brothers
10. Spyro Gyra
11. Sister Sledge
12. Kool & the Gang
13. KC & the Sunshine Band
14. Earth Wind & Fire
15. Joe Sentieri
Nuovi Testi/Accordi
1. You Belong To Me
2. Sweet Freedom
3. Tuesday Heartbreaker
4. Love two times
5. It's just a thoght chords
6. I Say a little prayer
7. Cocaine - Clapton
8. Gigi (Concato) - vs. Live
9. Bejo Partido
10. Moby Dick



CCCP - Tablatura - Annarella
Gestisci
Annarella


Parte strumentale:

( Cm) D# Gm A# Cm

E|----------------------------------------------------------------------|
B|---16-16-16-15-13--16-16----13-15--------13----13s15-15-13----13------|
G|-------------------------15--------15-15----15-------------15---------|
D|----------------------------------------------------------------------|
A|----------------------------------------------------------------------|
E|----------------------------------------------------------------------|

Entra la chitarra: Re#(365343) - Dom(x35543) - Solm(355433) - La#(688766)
(x4)

D# Cm
Lasciami qui
Gm
Lasciami stare
A# D#
Lasciami cosi'
Cm Gm
Non dire una parola che
La# (Si prosegue cosi` per tutto il
pezzo)
Non sia d'amore

Per me
Per la mia vita che
E' tutto quello che ho
E' tutto quello che io ho e non e' ancora
Finita
Finita...

1. 2. 3.

E|---------------------------------|-------|------------|-----------|
B|---------------------------------|-------|-------7----|-------8---|
G|---------------------------------|-------|---6s8---8--|---6s8-----|
D|-------------------(6)b8---------|---6~--|------------|-----------|
A|---9b10-10r9s6~--6-------8b9-6---|-------|------------|-----------|
E|---------------------------------|-------|------------|-----------|

N.B.
Manca l'ultima parte dell'assolo, pazientate ancora un po'...alla prossima
!!





Engine © 1999 - 2021 - Land63.com. e-mail:  Privacy | Norme sulla legalità