Informativa
Questo sito raccoglie dati statistici anonimi sulla navigazione, mediante cookie installati da terze parti autorizzate, rispettando la privacy dei tuoi dati personali e secondo le norme previste dalla legge. Continuando a navigare su questo sito, cliccando sulla pagina o semplicemente scrollando la pagina verso il basso, accetti il servizio, gli stessi cookie e rimuovi il messaggio.

    Maggiori informazioni.
A12
Home Tutti A-Z Testi Italiani A-Z Testi Stranieri A-Z Chiedi allo staff Drrunaway 19 Anni Fa
 Grateful Dead
Nuovi Artisti
1. Michael McDonald
2. Toninho Horta
3. Smooth Jazz vari
4. Double
5. Bronski Beat
6. Al Jarreau
7. Etta James
8. The Queen
9. The Isley Brothers
10. Spyro Gyra
11. Sister Sledge
12. Kool & the Gang
13. KC & the Sunshine Band
14. Earth Wind & Fire
15. Joe Sentieri
Nuovi Testi/Accordi
1. You Belong To Me
2. Sweet Freedom
3. Tuesday Heartbreaker
4. Love two times
5. It's just a thoght chords
6. I Say a little prayer
7. Cocaine - Clapton
8. Gigi (Concato) - vs. Live
9. Bejo Partido
10. Moby Dick



GRATEFUL DEAD - Tablatura - Bird Song
Gestisci
Song Name: Bird Song
Artist Name: Grateful Dead
Album: Reckoning
Words/Music: Hunter/Garcia

Main Riff in 'Bird Song' by The Grateful Dead
-------------------------------------------------------
-------------------------------------------------------
-------------------------15--12------------------------
-----12--13--15--12--------------13--15----------------
-15------------------13--------------------------------
-------------------------------------------------------

Chords For 'Bird Song' by The Grateful Dead

Intro/Riff: D7--C-D7--C-D7

D7 Riff
All I heard was something like a bird within her sing,

D7 Riff
All I know she sang a little while and then flew on,

Bb F C G D7 Riff
Tell me all that you know and I'll show you snow and rain.

If you hear that same sweet song again will you know why?
Anyone who sings a tune so sweet is passing by.
Laugh in the sunshine, sing, cry in the dark, fly through the night.

Bm A G D A G D A G D
Don't cry now, don't you cry, don't you cry anymore, la da da da.

Bm A G D A G D A G
D D7
Sleep in the stars, don't you cry, dry your eyes on the wind, la da da
da, da.

Just a note, I believe this is the version on "Garcia," in D, early live
versions were also in D but switched to E...

"Bird Song"
by the Grateful Dead
off of Reckoning

(CD time in parenthesis)

h = hammer on p = pull off
b = bend r = release bend
\ = slide ~ = let ring

Intro and Main Riff:
E
e|--------------------------------|
B|.------------------------------.|
G|---------------------2-----(1)--|
D|-------0--4---2-0-2----4-0--2---|
A|.-2--4---------------------(2)-.|
E|-(0:00)-------------------------|

Solo:

e|--5p3--------------------------------------------5p3-----------------------|
B|--------3-3---(2)-(2)----0h2-2--3p2--------------------3-3----2-2---2--3p2-|
G|------------not
audible----------------2--4-4------------------------------|
D|---------------------------------------------------------------------------|
A|---------------------------------------------------------------------------|
E|-(2:19)-----------------------------------------(2:25)---------------------|

e|----------------4-5-4--2---------------------------------------------------|
B|-2-------------------------it gets too fast
here---------------------------|
G|-----2----4-4--------------------------------------------------------------|
D|---------------------------------------------------------------------------|
A|---------------------------------------------------------------------------|
E|---------------(2:32)------------------------------------------------------|





Engine © 1999 - 2022 - Land63.com. e-mail:  Privacy | Norme sulla legalità