Informativa
Questo sito raccoglie dati statistici anonimi sulla navigazione, mediante cookie installati da terze parti autorizzate, rispettando la privacy dei tuoi dati personali e secondo le norme previste dalla legge. Continuando a navigare su questo sito, cliccando sulla pagina o semplicemente scrollando la pagina verso il basso, accetti il servizio, gli stessi cookie e rimuovi il messaggio.

    Maggiori informazioni.
A5
Home Tutti A-Z Testi Italiani A-Z Testi Stranieri A-Z Chiedi allo staff Drrunaway 19 Anni Fa
 Deep Purple
Nuovi Artisti
1. Michael McDonald
2. Toninho Horta
3. Smooth Jazz vari
4. Double
5. Bronski Beat
6. Al Jarreau
7. Etta James
8. The Queen
9. The Isley Brothers
10. Spyro Gyra
11. Sister Sledge
12. Kool & the Gang
13. KC & the Sunshine Band
14. Earth Wind & Fire
15. Joe Sentieri
Nuovi Testi/Accordi
1. You Belong To Me
2. Sweet Freedom
3. Tuesday Heartbreaker
4. Love two times
5. It's just a thoght chords
6. I Say a little prayer
7. Cocaine - Clapton
8. Gigi (Concato) - vs. Live
9. Bejo Partido
10. Moby Dick



DEEP PURPLE - Accordi - Burn
Gestisci
--Key----Delay----Bpm: 72---Guitar--Piano-
--------------------------------
Deep Purple - Burn
(Blackmore/Lord/Paice/Coverdale)
--------------------------------

Key: B flat

Intro: Gm


The sky is red, I don't understand;

past midnight I still see the land.

People are sayin' the woman is damned,

she makes you burn with a wave of her hand.
The city's ablaze, the town's on fire;

the woman's flames are reachin' higher.

We were fools, we called her "liar";

All I hear is "Burn!

I didn't believe she was devil's sperm;
she said, "Curse you all, you'll never learn!
When I leave there's no return!"
The people laughed till she said, "Burn!
Warning came, no one cared;
earth was shakin', we stood and stared.
When it came no one was spared;
Still I hear "Burn!


You know we had no time,

we could not even try,

You know we had no time.

The sky is red, I don't understand;
past midnight, I still see the land.
People are sayin' the woman is damned;
she makes you burn with a wave of her hand.
Warning came, no one cared;
earth was shakin, we stood and stared.
When it came no one was spared.
Still I hear "Burn!"


Chords typed in from an old songbook of the album "Burn" (1974) by:


"Thanks for the post...since the guitar riff was omitted, here it is
(from memory, so no guarantee!)

e-----------------------------------------------------------
b-----------------------------------------------------------
g------5-3-0-5------3-3--0-5--0-3-------5-3-0-5----5-3-0----
d------5-3-0-5------3-3--0-5--0-3-------5-3-0-5----5-3-0-3--
a--------------------------------------------------------3--
e---3-------------3------------------3-------------------1--

"Use pull-offs and hammer-ons....this is basically a two finger riff."


"Sorry, but I think your riff is slightly incorrect. I think this is more
accurate:
(also from memory, no guarantees)"

e-----------------------------------------------------------
b-----------------------------------------------------------
g------3-2-0-5------3-2-0-5--0-3------3-2-0-5------3-2-0----
d------3-2-0-5------3-2-0-5--0-3------3-2-0-5------3-2-0-3--
a--------------------------------------------------------3--
e---3-------------3------------------------------3------(1)-


"Well just to give my two cents' worth, I think the riff should be played
like this:

:e-----------------------------------------------------------
:b-----------------------------------------------------------
:g---0--3-2-0-5----0-3-2-0-5----3------3-2-0-5----0-3-2-0----
:d---0--3-2-0-5----0-3-2-0-5----3------3-2-0-5----0-3-2-0-3--
:a--------------------------------------------------------3--
:e-----------------------------------------------------------

"...but I know I play a whole load of Purple riffs differently to the way the
b'stard in black does (I know he plays Space Truckin' differently to me)"





Engine © 1999 - 2019 - Land63.com. e-mail:  Privacy | Norme sulla legalità