Informativa
Questo sito raccoglie dati statistici anonimi sulla navigazione, mediante cookie installati da terze parti autorizzate, rispettando la privacy dei tuoi dati personali e secondo le norme previste dalla legge. Continuando a navigare su questo sito, cliccando sulla pagina o semplicemente scrollando la pagina verso il basso, accetti il servizio, gli stessi cookie e rimuovi il messaggio.

    Maggiori informazioni.
A4
Home Tutti A-Z Testi Italiani A-Z Testi Stranieri A-Z Chiedi allo staff Drrunaway 19 Anni Fa
 Rem
Nuovi Artisti
1. Michael McDonald
2. Toninho Horta
3. Smooth Jazz vari
4. Double
5. Bronski Beat
6. Al Jarreau
7. Etta James
8. The Queen
9. The Isley Brothers
10. Spyro Gyra
11. Sister Sledge
12. Kool & the Gang
13. KC & the Sunshine Band
14. Earth Wind & Fire
15. Joe Sentieri
Nuovi Testi/Accordi
1. Je so pazzo
2. You Belong To Me
3. Sweet Freedom
4. Tuesday Heartbreaker
5. Love two times
6. It's just a thoght chords
7. I Say a little prayer
8. Cocaine - Clapton
9. Gigi (Concato) - vs. Live
10. Bejo Partido



REM - Accordi - Rotary 11
Gestisci
--Key----Delay----Bpm: 72---Guitar--Piano-
#

# For the latest collection of R.E.M. chords & tab, go to
#
# If you have any corrections or additions to this file, please email them
#

ROTARY ELEVEN (B-side to "Losing My Religion")

This has sort of a "swing feel"--it's in 12/8. I'm going to transcribe it in
4/4 because I feel like it. If you have no idea what I mean, listen to the
tape.

Stupid Notational Things:
\_/ = tie h = hammer-on
X = tenth fret p = pull-off
E = eleventh fret s/ = slide up
T = twelfth fret
_________________ _______________
e(1) |1st, 2nd times |3rd time
| |
|| ----------------|--2-3----------- ||--2-3-----3-5---|--5-7-----7-9-
D(4) ||.------2-1---2p1h|2-----3---------.||2-----3-------5-|5-----7-------9-
A(5) ||.----2-----------|----------------.|| \_/ \_
|| 0-3-------------|---------------- ||

e| ||
B| ||.------------X---|8---------------|
G|----9---------7-||.9---------------|--------------7-|9-X-9-----------|
D|9-------7-9-X---|| | |------8---------|
A|/ \__________


e| | |------------8---:7----------------|
B| |------------X---|8---------------|\________________
G|--------------7-|9---------------|
D|8-------7-9-X---|
A|/


e|7-----------8---|T-X-T-----------|
B|/ |------T-----E-T-|E---------------|
G| |--T-----E-8-----|9----------------|
|------9----------|
\__________


e| |------s/5-3-----|
|------------5-3-|
|3---2---0-------|----------------|
D|9-------------2-|1---------------|------------2-0-|2---------------|
A|/ ----2---|
E|--------0-3-----|

_____________________
|repeat a few times to the repeat above
e|
B|5--------------- ||
G|--------------7-.||
D|--------7-9-X---.||
A|---------------- ||


_________________ _________________
|finally... |1st, 2nd, 3rd
e|| ----------------| |------s/5-3----- ||
B|| 5---------------| |------------5-3-.||
G||.----------------| |3---2---0-------|----------------.||
D||.--------------2-|1---------------|------------2-0-|2--------------- ||
------------2---|
--------0-3-----|

e|--------T-------|
B|5-------T-------|
G|--------T-------|








Engine © 1999 - 2019 - Land63.com. e-mail:  Privacy | Norme sulla legalità