Informativa
Questo sito raccoglie dati statistici anonimi sulla navigazione, mediante cookie installati da terze parti autorizzate, rispettando la privacy dei tuoi dati personali e secondo le norme previste dalla legge. Continuando a navigare su questo sito, cliccando sulla pagina o semplicemente scrollando la pagina verso il basso, accetti il servizio, gli stessi cookie e rimuovi il messaggio.

    Maggiori informazioni.
A11
Home Tutti A-Z Testi Italiani A-Z Testi Stranieri A-Z Chiedi allo staff Drrunaway 19 Anni Fa
 Operation Ivy
Nuovi Artisti
1. Michael McDonald
2. Toninho Horta
3. Smooth Jazz vari
4. Double
5. Bronski Beat
6. Al Jarreau
7. Etta James
8. The Queen
9. The Isley Brothers
10. Spyro Gyra
11. Sister Sledge
12. Kool & the Gang
13. KC & the Sunshine Band
14. Earth Wind & Fire
15. Joe Sentieri
Nuovi Testi/Accordi
1. You Belong To Me
2. Sweet Freedom
3. Tuesday Heartbreaker
4. Love two times
5. It's just a thoght chords
6. I Say a little prayer
7. Cocaine - Clapton
8. Gigi (Concato) - vs. Live
9. Bejo Partido
10. Moby Dick



OPERATION IVY - Accordi - Healthy Mind
Gestisci
--Key----Delay----Bpm: 72---Guitar--Piano-
#

Song: Healthy Body, Sick Mind
Band: Operation Ivy
Albums: Energy and Seedy (uncut version)

i got a few requests for this and after a while i finally got it!
for the verses and choruses use ska-type strumming:
fast, kinda muted upsrokes

CHORDS



|---2----------------3---------------|
|---3-------2--------0------1--------|
|---2-------2--------0------0--------|
|---0-------2--------0------2--------|
|-----------0--------2------3--------|
|--------------------3---------------|

or use these, doesn't really make a difference:


|---------------------------------|
|---------------------------------|
|----7--------------------5-------|
|----7-----7--------5-----5-------|
|----5-----7--------5-----3-------|
|----------5--------3-------------|

Intro: D, A, D, A, D, A

Riff:
b= bend string

|----------------------------| |-----------------|
|---3-5-5b-5b-3-7-9-9b-9b-7--| |--7b-7b-7b-7b-7--|
|----------------------------|play that 3x|-----------------|
|----------------------------|then----: |-----------------|
|----------------------------| |-----------------|
|----------------------------| |-----------------|

play that on one guitar while other plays G, C (x3) D

Verse:


expensive vitamin pills and wheat germ on your windowsill

your schedule's hectic and you got no time to kill

you're earning money and spending it the right way

you're in such a rush you don't know if it's night or day

5:30 get up and you run, run, run

then you work 8 hours slaving under the gun

your little world's based on lies lies lies

always rushing but you're never ever satisfied

CHORUS:


healthy body sick mind you're working overtime
(same chords)
healthy body sick mind too hectic, too hectic
healthy body sick mind ??????? (the lyrics are screwed up here)


it's just a matter of time sick body sick mind

play Riff

Verse2:

the money you spend on running shoes could feed me for a week
your plans are laid so well you can't even sleep
pursuit of happiness got your life locked under martial law
you got everything to lose so your paranoid about some fatal flaw
5:30 get up and you run, run, run
then you work 8 hours slaving under the gun
your little world's made up of lies lies lies
always rushing but you're never satisfied

CHORUS

Outro:

|-----------------------|
|--3-3-5b-5b-5b-5b-5-3--|
|-----------------------|
|-----------------------|
|-----------------------|
|-----------------------|

C-C-C-C, D-D, D-D

|-----------------------|
|--7-7-9b-9b-9b-9b-9-7--|
|-----------------------|
|-----------------------|
|-----------------------|
|-----------------------|

C-C-C-C, D-D, D-D,

well, that's all! have fun. note to all who sent in requests:
i have been completely swamped, but i have written down what
everyone wants so i'll get around to it soon! still can't find my
damn Rancid self-titled CD!!!!!!
send all comments, questions, punk tabs, and requests (i'll do my

OI!





Engine © 1999 - 2021 - Land63.com. e-mail:  Privacy | Norme sulla legalità