Informativa
Questo sito raccoglie dati statistici anonimi sulla navigazione, mediante cookie installati da terze parti autorizzate, rispettando la privacy dei tuoi dati personali e secondo le norme previste dalla legge. Continuando a navigare su questo sito, cliccando sulla pagina o semplicemente scrollando la pagina verso il basso, accetti il servizio, gli stessi cookie e rimuovi il messaggio.

    Maggiori informazioni.
A12
Home Tutti A-Z Testi Italiani A-Z Testi Stranieri A-Z Chiedi allo staff Drrunaway 19 Anni Fa
 Claudio Baglioni
Nuovi Artisti
1. Michael McDonald
2. Toninho Horta
3. Smooth Jazz vari
4. Double
5. Bronski Beat
6. Al Jarreau
7. Etta James
8. The Queen
9. The Isley Brothers
10. Spyro Gyra
11. Sister Sledge
12. Kool & the Gang
13. KC & the Sunshine Band
14. Earth Wind & Fire
15. Joe Sentieri
Nuovi Testi/Accordi
1. You Belong To Me
2. Sweet Freedom
3. Tuesday Heartbreaker
4. Love two times
5. It's just a thoght chords
6. I Say a little prayer
7. Cocaine - Clapton
8. Gigi (Concato) - vs. Live
9. Bejo Partido
10. Moby Dick



CLAUDIO BAGLIONI - Accordi - Ragazza Di Campagna
Gestisci
--Key----Delay----Bpm: 72---Guitar--Piano-
Tab Intro

E||------10----9--7----5--|--------------3--2--|-------3--0-------2-----|

B||------7-------------5--|--------------------|--2----------2-------3--|

G||------7-------------6--|--------------------|--2----------2-------2--|

D||------0-------------7--|--------------------|---------------------4--|

A||-----------------------|--------------------|--0------------------5--|

E||--------------------5--|--------------------|------------------------|

------------------|------10----9--------5--|--------------3--2--|
------------------|---------------12----5--|--------------------|
------------------|------11-------------6--|--------------------|
------------------|------12-------------7--|--------------------|
------------------|------------------------|--------------------|
------------------|------10-------------5--|--------------------|

-------3--0-------2-----|--3------2----------|--0------0----------||
--2----------2-------3--|--0------3----------|--1------2----------||
--2----------2----------|--0------2----------|--0------0----------||
------------------------|---------0----------|--2------2----------||
--0---------------------|--------------------|--3------0----------||
------------------------|--3-----------------|--------------------||


Intro ........................................

.......................................


Chiudi a chiave la porta, mi fai un poco pena,

un ceffone sul viso, a letto senza cena,

quel rossetto a tuo padre non è andato giu'...

e ti bruciano ancora quelle cinque dita,

mentre asciughi gli occhi, ma non sei pentita,

"babbo me la paghi: domani scappo via".

Ti avvicini allo specchio, tiri via la gonna,
mica male le gambe, sembri gia' una donna,
un bottone, poi l'altro e la camicia "et voila'" vola sopra il como',
e le scarpe piu' o meno la stessa fine,
poi le calze pian piano, come hai visto al cine,

poi ti alzi in piedi, e quel che avevi non l'hai piu'.

{start_of_chorus}

Guardi in giu' se il tuo seno e' un po' di piu', se e' un po' cresciuto,


tiri su i tuoi capelli, fai le facce strane come in un film muto,

sara' peccato? "Giuro: non lo faccio piu',

caro Gesu', Giuseppe e Maria, vi dono il cuore e l'anima mia"...
{end_of_chorus}


La camicia da notte, quella di tua nonna,
poi ti soffi il naso, metti a posto la gonna,
togli via il rossetto e con l'acqua del catino ci annaffi i lilla'.
Ti fai un giro di valzer con il tuo cuscino,
fai a meta' del pane con il canarino,
poi con un gran salto fin sopra il letto, op-la'.

{start_of_chorus}
Ecco qua, come cena pane ed unghie non ti piace,
cosa fa...? quel fumetto poi ti va, perche' l'attore e' bello e audace,
il segno della croce poi lo metti via,
"caro Gesu', Giuseppe e Maria, siate la salvezza dell'anima mia..."
{end_of_chorus}

Fissi a lungo un trave, ma che hai da pensare?
La faccenda e' gracve, tra molliche e zanzare,
pancia, sotto, di fianco, bevi un sorso d'acqua, ti rigiri, ma dentro
cos'hai?
E poi per guardarti ancora nello specchio,
tiri su la camicia, ti alzi su in ginocchio,

c'è' un rumore, smorzi il lume, e buonanotte al secchio...


trattenere il fiato era stata dura,

fermo li' a guardare dentro la fessura,

poi t'inciampo in qualcosa, che razza di figura!


E chissa' chi hai creduto fosse nel solaio,

se gia' dormi o ridi, cosa fai nel buio...

... zitta con tuo padre, se no succede un guaio.





Engine © 1999 - 2022 - Land63.com. e-mail:  Privacy | Norme sulla legalità