Informativa
Questo sito raccoglie dati statistici anonimi sulla navigazione, mediante cookie installati da terze parti autorizzate, rispettando la privacy dei tuoi dati personali e secondo le norme previste dalla legge. Continuando a navigare su questo sito, cliccando sulla pagina o semplicemente scrollando la pagina verso il basso, accetti il servizio, gli stessi cookie e rimuovi il messaggio.

    Maggiori informazioni.
A6
Home Tutti A-Z Testi Italiani A-Z Testi Stranieri A-Z Chiedi allo staff Drrunaway 19 Anni Fa
 Beastie Boys
Nuovi Artisti
1. Michael McDonald
2. Toninho Horta
3. Smooth Jazz vari
4. Double
5. Bronski Beat
6. Al Jarreau
7. Etta James
8. The Queen
9. The Isley Brothers
10. Spyro Gyra
11. Sister Sledge
12. Kool & the Gang
13. KC & the Sunshine Band
14. Earth Wind & Fire
15. Joe Sentieri
Nuovi Testi/Accordi
1. You Belong To Me
2. Sweet Freedom
3. Tuesday Heartbreaker
4. Love two times
5. It's just a thoght chords
6. I Say a little prayer
7. Cocaine - Clapton
8. Gigi (Concato) - vs. Live
9. Bejo Partido
10. Moby Dick



BEASTIE BOYS - Tablatura - Fight For Your Right
Gestisci
Intro
Verse Chorus
Verse Chorus
Bridge
Solo
Verse Chorus Chorus
Bridge
Outro

Have a jolly good time!

------------------------------(cut here)---------------------------------------

Fight for Your Right - Beastie Boys

Tune down half step

Intro
(E5) A
A C D (6x)

Verse
A C D A C D A5(pm) (4x)
A C D A (TACET)

Chorus
A D (2x)
A C D (2x)

Bridge
A C D
E G (3x)
E

Solo
A C D (7x)
A5(pm)

Outro
A C D (4x)
A

-----
*INTRO*

Yeah
Kick it!

You wake up late for school man you don't wanna go
You ask your mum please but she still says "NO!"
You missed two classes have no homework
Your teachers preaches class like it some kind of jerk

You gotta fight
For your right
To party

Your pop caught you smoking and he said "NO WAY!"
That old hypocrite smoke two packs a day
Man, living at home is such a drag
Now, your mum threw away your best porno-mag

You gotta fight
For your right
To party

*BRIDGE*

You gotta fight

*SOLO*

Get out of this house if that's the clothes you gonna wear
I'll kick you out of this house if you don't cut that hair
Your mama busted in and said "What's that noise?"
Oh, mama you're just jealous it's the beastieboys

You gotta fight
For your right
To party

You gotta fight
For your right
To party

*BRIDGE*

PARTY!
PARTY!

---------------

Solo
e--15--15--15b16--15--12------------------------------------------------------
B-------------------------15--14b16--14--15-----------------------------------
G----------------------------------------------------13--13-16b18r16--14------
D--------------------------------------------12--14---------------------------
A-----------------------------------------------------------------------------
E-----------------------------------------------------------------------------

e--16b17--16--14--12b13r12--14--16--17--
B---------------------------------------
G---------------------------------------
D---------------------------------------
A---------------------------------------
E---------------------------------------


Fight For Your Right (To Party)
Beastie Boys



INTRO VERSE/INTRO 2 x8 pm....................
E A A C D A
|------------------|-------------|-----------------------------------------|
|------------------|-------------|-----------------------------------------|
|------2-(let ring)|--2-2--5--7--|-----------------------------------------|
|---2--2-----------|--2-2--5--7--|---7-7-7-(etc...)------------------------|
|---2--0-----------|--0-0--3--5--|---7-7-7---------------------------------|
|---0--------------|-------------|---5-5-5---------------------------------|
(Play once...) (Play lots of times w/drum beat....)

Bridge x3 Fill (I don't know what this is really called)
E G D
|-----------------| |-----------|
|-----------------| |-----------|
|-----------------| |---7---7---|
|---2-2-2-2-2--5--| |---7---7---|
|---2-2-2-2-2--5--| |---5---5---|
|---0-0-0-0-0--3--| |-----------|

Solo-???

Lyrics- INTRO & INTRO 2
*Verse 1*
Wake up late for school, man you don't wanna go.. VERSE
You ask your mom "Please!" but she still says "No!" VERSE
Miss two classes and no homework VERSE
Your teacher preaches class like you're some kind of jerk VERSE

*Chorus*
You gotta fight! FILL
For your right!
To party! VERSE

*Verse 2*
Pop caught you smokin' man he says "No way!" VERSE
That hypocrite smoke two packs a day! VERSE
Man livin' at home is such a drag! VERSE
And your mom threw away your best porno-mag! (Busted!) VERSE

*Chorus*

*Bridge*

You gotta fight!

*Bass Solo*

*Verse 3*
Get out of this house if that's the clothes you're gonna wear! VERSE
I'll kick you outta this house if you don't cut-that-hair! VERSE
Mom busted in she says "What's that noise?!" VERSE
Oh mom you're just jealous its the Bea-stie-Boys! VERSE

*Chorus* x2

*Bridge*

Party!
Party!
________________

This was originally supposed to be for my band, so it's not
quite exact, because we had to change things around a bit,
so don't bitch at me because it's not perfect. I also need
the solo. All the other solo's I've seen, haven't been
as accurate as I would like, so if anybody has it, PLEASE
etc....





Engine © 1999 - 2020 - Land63.com. e-mail:  Privacy | Norme sulla legalità