Informativa
Questo sito raccoglie dati statistici anonimi sulla navigazione, mediante cookie installati da terze parti autorizzate, rispettando la privacy dei tuoi dati personali e secondo le norme previste dalla legge. Continuando a navigare su questo sito, cliccando sulla pagina o semplicemente scrollando la pagina verso il basso, accetti il servizio, gli stessi cookie e rimuovi il messaggio.

    Maggiori informazioni.
A11
Home Tutti A-Z Testi Italiani A-Z Testi Stranieri A-Z Chiedi allo staff Drrunaway 19 Anni Fa
 Bad Company
Nuovi Artisti
1. Michael McDonald
2. Toninho Horta
3. Smooth Jazz vari
4. Double
5. Bronski Beat
6. Al Jarreau
7. Etta James
8. The Queen
9. The Isley Brothers
10. Spyro Gyra
11. Sister Sledge
12. Kool & the Gang
13. KC & the Sunshine Band
14. Earth Wind & Fire
15. Joe Sentieri
Nuovi Testi/Accordi
1. You Belong To Me
2. Sweet Freedom
3. Tuesday Heartbreaker
4. Love two times
5. It's just a thoght chords
6. I Say a little prayer
7. Cocaine - Clapton
8. Gigi (Concato) - vs. Live
9. Bejo Partido
10. Moby Dick



BAD COMPANY - Tablatura - Feel Like Making Love
Gestisci
Feel Like Making Love

D5 C5 G5 F5
E
B
G 7 5 10
D 7 5 5 10
A 5 3 5 8
E 3

Intro:
E-|-10-10--10-8-8-8-7-7h8-7--7-7---10-10-10--8-8-8-7-7-8--2-------------------|
B-|-10-10--10-8-8-8-8-8---8--8-8---10-10-10--8-8-8-8-8-8--3-------------------|
G-|-11-11--11-9-9-9-7-7---7--7-7---11-11-11--9-9-9-7-7-7--2-------------------|
D-|-------------------------------------------------------0-------------------|
A-|---------------------------------------------------------------------------|
E-|---------------------------------------------------------------------------|

D G
Baby, when I think about you
I think about Love
Darling, i don't live without you
And you love
If i had those golden dreams
Of my yesterday
I would wrap you in the heaven
and feel that ? on the way

CHORUS:
(x means dead note before the chord)
Feel Like makin' C5 D5 D5 C5 D5 D5 C5 D5 D5 G D (repeated for whole chorus)
Feel like makin love
feel like makin love
C5 D5 G5 F5 D5
feel like making love to you

D G
Baby, if I think about you
i think about love
Darling, if i live without you
i live without love
And if i had the sun and moon
and they were shining
i would give you both night and day
love satisfying

CHORUS

E-|-------------------------------------------------------------------------|
B-|-------------------------------------------------------------------------|
G-|--------2-0--------0-4---2h4p2-0-------------2-0-------0-4--2h4p2-0------|
D-|-4--2h4-0-0----2h4-0-0---0-----0------4--2h4-0-0---2h4---0--0---- 0------|
A-|-5------------------------------------5----------------------------------|
E-|-------------------------------------------------------------------------|
i think this part may actually be played an octave up (12 frets higher)

D G
and if I had those golden dreams
of my yesterday
i would wrap you in the heaven
feel their dying on the way

Feel like makin
Feel like makin love (fill 1)
Feel like makin love (fill 2)
Feel like making love

Feel like making love to you

Well I feel like making love to you

fill 1: fill 2:
E-|-16^-14------|---------------------|-------------------------------------|
B-|--------15~\-|---------15-15---15~-|-----the-rest-of-the-fills-are-using-|
G-|-------------|---14h16------14-----|----------delay,-and-i-can't-figure--|
D-|-------------|---------------------|------------------them-out.....------|
A-|-------------|---------------------|-------------------------------------|
E-|-------------|---------------------|-------------------------------------|

repeat fading out





Engine © 1999 - 2021 - Land63.com. e-mail:  Privacy | Norme sulla legalità