Informativa
Questo sito raccoglie dati statistici anonimi sulla navigazione, mediante cookie installati da terze parti autorizzate, rispettando la privacy dei tuoi dati personali e secondo le norme previste dalla legge. Continuando a navigare su questo sito, cliccando sulla pagina o semplicemente scrollando la pagina verso il basso, accetti il servizio, gli stessi cookie e rimuovi il messaggio.

    Maggiori informazioni.
A9
Home Tutti A-Z Testi Italiani A-Z Testi Stranieri A-Z Chiedi allo staff Drrunaway 19 Anni Fa
 Carmen Consoli
Nuovi Artisti
1. Michael McDonald
2. Toninho Horta
3. Smooth Jazz vari
4. Double
5. Bronski Beat
6. Al Jarreau
7. Etta James
8. The Queen
9. The Isley Brothers
10. Spyro Gyra
11. Sister Sledge
12. Kool & the Gang
13. KC & the Sunshine Band
14. Earth Wind & Fire
15. Joe Sentieri
Nuovi Testi/Accordi
1. You Belong To Me
2. Sweet Freedom
3. Tuesday Heartbreaker
4. Love two times
5. It's just a thoght chords
6. I Say a little prayer
7. Cocaine - Clapton
8. Gigi (Concato) - vs. Live
9. Bejo Partido
10. Moby Dick



CARMEN CONSOLI - Accordi - Quello Che Sento
Gestisci
--Key----Delay----Bpm: 72---Guitar--Piano-
QUELLO CHE SENTO - Carmen Consoli

Il brano è scritto in tonalità di MI- (relativa di SOL maggiore)

LEGENDA: ^^^ = leg. = legato

INTRO:

^^^ ^^^
|--3--------0------0---0---|-3-------0---------0-------|---------3-----
|----0----5---5--7---7---7-|---0---5---5-3-1-1---1-0---|-1-3-3-3---3---
|-----(0)------------------|-----0-------------------0-|-------------0-
|--2-----------------------|-2-------------------------|---------------
|---------3------5---------|-------3-----2-0-0---------|-0-----2-------
|--------------------------|---------------------------|---------------


^^^

|---0---0---|---------3--------------------|--------------------------
|-5---5---5-|-1-3-3-3---3-----5--7--8--10--|--------------------------
|-----------|-------------0----------------|--------------------------
|-----------|------------------------------|--------------------------
|-3---------|-0-----2---------3--5--7---9--|--strofa------------------
|-----------|------------------------------|--------------------------


Per la strofa cantata e per il ritornello cercherò di fornire gli accordi
usati cercando di essere il più fedele possibile al disco
(ma non li trascriverò esattamente come sopra perchè, oltre che a rischiare
inutili incertezze, sarebbe un superlavoraccio!!!!!!!). Degli accordi
trascritti suonare solo le note indicate nella tabolatura:

MI- DO RE SUS 9

|--------3-------3-------------0------------------------------0---------
|--------0-------0-----------5---5---------------------7--7-7---7-------
|--------0-------0-------------------------------------7--7-------------
|--------2-------2------------------------------------------------------
|----------------------------3-------------------------5----5-----------
|-----------------------------------------------------------------------
"Mostrare falsa ipocri.. ta serenità quando.. le parole si ribellano
favole fiumi, mari.. di perplessità non.. c'è una ragione per non provare

^^^ ^^^
|-3-------0---------------0-----------------3-----------------0---0-----
|---0---5---5-------3-1-1---1-0-----1-3-3-3---3-------------5---5---5---
|-----0-------------------------0---------------0-----------------------
|-2---------------------------------------------------------------------
|-------3-----------2-0-0-----------0-----2-----------------3-----------
|-----------------------------------------------------------------------
quello che sento.. dentro.. un cielo immenso.. dentro..

^^^
|------------3---------------------------------------------------------
|-1-3-3---3-----3-----------5--7--8--10--------------------------------
|------------------0---------------------------------------------------
|----------------------------------------------------------------------
|-0-------2-----------------3--5--7--9-----------rit-------------------
|----------------------------------------------------------------------
..quello che sento..

Il ritornello mi risulta alquanto intricato da trascrivere vistoche ci
sono almento 2 chitarre sovraincise che compiono 2 lavori differenti.
Ad ogni modo può essere suonato indubbiamente sui due accordi portanti
che sono un MI- (o, più probabilmente un MI-7) e un LA-7.
Questa riportata di seguito è la sezine del primo ritornello nel brano:


|-----0--------------------0---------------0----0----0----0-------------
|-----3--------------------1---------------1----1----1----1-------------
|-----0--------------------0---------------0----0----0----0-------------
|-----2--------------------2---------------2----2----2----0-------------
|-----2--------------------0---------------0----2----3------------------
|-----0--------------------0--------------------------------------------
Ho bisogno di stare co.. .on te..rega.. ..larti le ali di ogni.. ..mio..pen..sie..ro..



|-----0--------------------0------------------0----0------0----0-------
|-----3--------------------1------------------1----1------1----0-------
|-----0--------------------0------------------0----0------0----0-------
|-----2--------------------2------------------2----2------2----2-------
|-----2--------------------0------------------0----2------3----3-------
|-----0--------------------0-------------------------------------------
oltre le vie chiuse.. ..in me voglio a.. ..prire il mio cuore a.. ciò..che è..ve...ro..

________________________________________________________________________


Questa, invece, è la sezione conclusiva del brano con i due
ritornelli di seguito che chiudono con un DO/RE nel finale:



|-----0--------------------0---------------0----0----0----0-------------
|-----3--------------------1---------------1----1----1----1-------------
|-----0--------------------0---------------0----0----0----0-------------
|-----2--------------------2---------------2----2----2----0-------------
|-----2--------------------0---------------0----2----3------------------
|-----0--------------------0--------------------------------------------
Ho bisogno di stare co.. .on te..rega..
..larti le ali di ogni.. ..mio..pen..sie..ro..





|-----0--------------------0------------------0-----0------0-0-0-0-0-0--
|-----3--------------------1------------------1-----1------1-1-1-1-1-1--
|-----0--------------------0------------------0-----0------0-0-0-0-0-0--
|-----2--------------------2------------------2-----2------2-2-2-2-2-2--
|-----2--------------------0------------------0-----2------3-3-3-3-3-3--
|-----0--------------------0--------------------------------------------
oltre le vie chiuse.. ..in me voglio a..
..prire il mio cuore a.. ciò...che
è..vero..e
ho bi..
________________________________________________________________________


|---0--------------------0---------------0----0----0----0-------------
|---3--------------------1---------------1----1----1----1-------------
|---0--------------------0---------------0----0----0----0-------------
|---2--------------------2---------------2----2----2----0-------------
|---2--------------------0---------------0----2----3------------------
|---0--------------------0--------------------------------------------
..sogno di stare co.. .on te..rega..
..larti le ali di ogni.. ..mio..pen..sie..ro..



|-----0--------------------0------------------0----0------0--0--------
|-----3--------------------1------------------1----1------1--1--------
|-----0--------------------0------------------0----0------0--0--------
|-----2--------------------2------------------2----2------2--0--------
|-----2--------------------0------------------0----2------3-----------
|-----0--------------------0------------------------------------------
oltre le vie chiuse.. ..in me voglio a..
..prire il mio cuore a.. ciò..che è..ve..ro


|--3-------0--------0---0------|---3-------0-------0---0----------------
|----0---5---5----7---7---7----|-----0---5---5---7---7---7--------------
|------0-----------------------|-------0--------------------------------
|--2---------------------------|---2------------------------------------
|--------3--------5------------|---------3-------5----------------------
|------------------------------|----------------------------------------
..a ciò che è vero.. ...aahhh...

^^^ ^^^

|-3-------0-----------0--------|-------------3------------0---0-------
|---0---5---5---3-1-1---1-0----|-----1-3-3-3---3--------5---5---5-----
|-----0---------------------0--|-----------------0--------------------
|-2----------------------------|--------------------------------------
|-------3-------2-0-0----------|-----0-----2------------3-------------
|------------------------------|--------------------------------------

RALLENTATO
^^^ armonici

|------------3--------------------------------------------------------
|-1-3-3---3-----3-------5--7--8--10-------12--------------------------
|------------------0----------------------12--------------------------
|-----------------------------------------12--------------------------
|-0-------2-------------3--5--7--9--------12--------------------------
|---------------------------------------------------------------------

_______________________________________________________________________
-----------------------------------------------------------------------





Engine © 1999 - 2021 - Land63.com. e-mail:  Privacy | Norme sulla legalità