Informativa
Questo sito raccoglie dati statistici anonimi sulla navigazione, mediante cookie installati da terze parti autorizzate, rispettando la privacy dei tuoi dati personali e secondo le norme previste dalla legge. Continuando a navigare su questo sito, cliccando sulla pagina o semplicemente scrollando la pagina verso il basso, accetti il servizio, gli stessi cookie e rimuovi il messaggio.

    Maggiori informazioni.
A9
Home Tutti A-Z Testi Italiani A-Z Testi Stranieri A-Z Chiedi allo staff Drrunaway 19 Anni Fa
 Bandabardo'
Nuovi Artisti
1. Michael McDonald
2. Toninho Horta
3. Smooth Jazz vari
4. Double
5. Bronski Beat
6. Al Jarreau
7. Etta James
8. The Queen
9. The Isley Brothers
10. Spyro Gyra
11. Sister Sledge
12. Kool & the Gang
13. KC & the Sunshine Band
14. Earth Wind & Fire
15. Joe Sentieri
Nuovi Testi/Accordi
1. You Belong To Me
2. Sweet Freedom
3. Tuesday Heartbreaker
4. Love two times
5. It's just a thoght chords
6. I Say a little prayer
7. Cocaine - Clapton
8. Gigi (Concato) - vs. Live
9. Bejo Partido
10. Moby Dick



BANDABARDO' - Accordi - 20 Bottiglie Di Vino
Gestisci
--Key----Delay----Bpm: 72---Guitar--Piano-
20 bottiglie di vino - bandabardò
mojito football club

Intro:

e|---5---3-------------5-6-8-6---5---5h6h5----3-----------------------------|
B|-----------6----3----------------------------------3-------6--------------|
G|--------------------------------------------------------------------------|
D|--------------------------------------------------------------8-------9---|
A|--------------------------------------------------------------------------|
E|--------------------------------------------------------------------------|

e|--12--11--10--9--8--9--10--11--12- -12--11--10--9--8--9--10--11-7---7---7-|
B|---------------------------------- ---------------------------------------|
G|---------------------------------- ---------------------------------------|
D|---------------------------------- ---------------------------------------|
A|---------------------------------- ---------------------------------------|
E|---------------------------------- ---------------------------------------|



Un articolo molto speciale
La calma del surfista
Con lei aspetti l'onda
E parti alla conquista
Di una strada sempre diversa
Di una vita che sembra persa
Che si riprende in colpo di reni
O con una caduta senza problemi

Chorus:


Servono venti bottiglie di vino
Chi dice di più ,chi dice di meno
Chi vuole la calma serena e orgogliosa

Di chi crede,di chi osa

Solo 20 bottiglie di vino
Chi dice di più ,chi dice di meno
Chi vuole la calma serena e orgogliosa
Di chi crede,di chi osa
Alzate le mani, alzate le mani!
Un articolo molto richiesto
Lo sguardo del rapace
Per non perdere di vista
Ogni minimo segno di pace
La vista serve alla concentrazione
Di chi non si perde perchè fa attenzione
Serve alla memoria per non confondere la storia

Servono venti bottiglie di vino....
Alzate le mani, alzate le mani!

Per 20 bottiglie di vino
Un po' d'erba del vicino
L'emozione dentro al canto
Una risata dopo il pianto
Un finale da carnevale
Il diverso diventa uguale
Giocatevi il destino

Con 20 bottiglie di vino
Comprate ,gente,comprate!
Alzate le mani ,alzate!
Al mercato clandestino
Delle 20 bottiglie di vino





Engine © 1999 - 2020 - Land63.com. e-mail:  Privacy | Norme sulla legalità