Informativa
Questo sito raccoglie dati statistici anonimi sulla navigazione, mediante cookie installati da terze parti autorizzate, rispettando la privacy dei tuoi dati personali e secondo le norme previste dalla legge. Continuando a navigare su questo sito, cliccando sulla pagina o semplicemente scrollando la pagina verso il basso, accetti il servizio, gli stessi cookie e rimuovi il messaggio.

    Maggiori informazioni.
A11
Home Tutti A-Z Testi Italiani A-Z Testi Stranieri A-Z Chiedi allo staff Drrunaway 19 Anni Fa
 Dhamm
Nuovi Artisti
1. Michael McDonald
2. Toninho Horta
3. Smooth Jazz vari
4. Double
5. Bronski Beat
6. Al Jarreau
7. Etta James
8. The Queen
9. The Isley Brothers
10. Spyro Gyra
11. Sister Sledge
12. Kool & the Gang
13. KC & the Sunshine Band
14. Earth Wind & Fire
15. Joe Sentieri
Nuovi Testi/Accordi
1. You Belong To Me
2. Sweet Freedom
3. Tuesday Heartbreaker
4. Love two times
5. It's just a thoght chords
6. I Say a little prayer
7. Cocaine - Clapton
8. Gigi (Concato) - vs. Live
9. Bejo Partido
10. Moby Dick



DHAMM - Tablatura - Street Fighter Tra Cielo E Terra
Gestisci
--------

****** Street Fighter II Victory ******

**** Dhamm - Tra cielo e terra ****

** (visualizzare con Courier 10) **

Accordi (diteggiature suggerite):

Em : 022000
Re : xx0232
G : 320033
Do : x32010

Legenda per le tablature:

/ = slide (glissato)
h = hammer-on
p = pull-off
b = bending
r = release
~ = tremolo (mano sinistra)
vv = tremolo (leva)
() = legatura di valore
|_3_| = terzina

-----------------------------------------------------------------------

Em (D) G (D)
Em (D) G (D)

E||---------------------------||
B||--3------------------------||
G||-----2b4r2-p-0-------------||
D||----------------2----------||
A||---------------------------||
E||---------------------------||

Em (D) G (D)
Em (D) G (D)

Hai preso troppi calci ormai
Em (D)G (D)Em
il cuore e' livido
(D) G

E||------------------------||
B||----------8-------------||
G||-------7-------9--------||
D||--7/9-------------------||
A||------------------------||
E||------------------------||

ma questo sale non va giu'
Em (D)G (D)Em
e non c'e' andato mai
(D) G

E' tempo di dire che ci sei
C Em (D) G (D)
segnare la differenza
C
tra vivere e morire
D

Fammi sentire il cuore
G D
che grida dal dolore
Em C
e sputa il sangue finche puoi
G D C

E||--------------|-----------------------|--------------||
B||--------------|-----------------------|--------------||
G||--------------|-----------------------|--------------||
D||--5-----------|------------------7----|--------------||
A||--3-----------|--2--3----2--3----5----|--5-----------||
E||--------------|-----------------------|--3-----------||
...puoi Cammina...

Cammina a denti stretti
G D
vivi tra cielo e terra
Em C
e fai sentire che ci sei
G D C

E||-------------------------||
B||-------------------------||
G||--------0--------0--2----||
D||-----2--------0-----2----||
A||--3--------2--------0----||
E||-------------------------||
...sei

Em (D) G (D)
Em (D) G (D)

Sara' la vita a dirti se
Em (D)G (D)Em
e dove arriverai
(D) G

E||--------------------------||
B||--------------------------||
G||-------7------------------||
D||--7/9-----7--/--5---------||
A||---------------------7----||
E||--------------------------||

e sara' il tempo a dirti se
Em (D) G (D)Em
e quanto fiato avrai
(D) G

Ma in fondo qui non si arriva mai
C Em (D) G (D)
e quello che puoi toccare
C
lo perdi in un momento
D

Cancella il tuo destino
G D
scrivi da te la vita
Em C
e ferma il tempo finche puoi
G D C

Cammina a denti stretti
G D
vivi tra cielo e terra
Em C
e fai sentire che ci sei...
G D C
che ci sei... si'!
D


Assolo (prima parte: da eseguire con bottleneck)

E||-----------------|-----------------|-------------------|
B||-----------------|-----------------|-------------------|
G||-----------------|--12-------------|-------------------|
D||--5--/---12------|---------12------|--5---/---12-------|
A||-----------------|-----------------|-------------------|
E||-----------------|-----------------|-------------------|


---------------------------|-----------------|--12----------------|
---------------------------|-----------------|--------12----------|
--12-----------------------|--5---/---12-----|--------------12----|
-------12/-10--------------|-----------------|--------------------|
---------------12/14-10----|-----------------|--------------------|
---------------------------|-----------------|--------------------|


--------------------|----------------------------------|
--12-/-14-----------|----------------------------------|
--12-/-14-----------|----------17--------------17------|
--12-/-14-----------|--15/-17------17--15/-17------17--|
--------------------|----------------------------------|
--------------------|----------------------------------|
A B C

Assolo (seconda parte)

--------3--------3--------|--3--------3--------3-----|
-----3--------3--------3--|--------3--------3--------|
--5b-------5b-------5b----|-----5b-------5b-------3--|
--------------------------|--------------------------|
--------------------------|--------------------------|
--------------------------|--------------------------|

-----------------------------|-------------------------|
-----------------------------|-------------------------|
-(3)--------3----------------|-------------------------|
------5--3-----5--3----------|-------------------------|
---------------------5--3----|-------------------------|
-----------------------------|--6--3--1--3--6--3--3----|
vv

--------------------------------------------------------|
--------------------------------------------------------|
--------------------------------------------------------|
-----------------------------------12-12h14p12----12-14-|
-----------12-12h14p12----12-14-15-------------15-------|
--12-14-15-------------15-------------------------------|

|__3___| |__3___|

-------------------------------------------|----------------------|
--------------------------12-13-15-15b-----|--15b-r-----15b-r-b---|
--11-12-12h14p12-11-12-14------------------|----------------------|
-------------------------------------------|----------------------|
-------------------------------------------|----------------------|
-------------------------------------------|----------------------|
A B C
|__3___|

----------------------|----------------------------------|--------||
--16b--16b--16b--16b--|----------------------------------|--------||
----------------------|--14b-r-p-12--14b-r-p-12--14b-r-p-|--12----||
----------------------|----------------------------------|--------||
----------------------|----------------------------------|--------||
----------------------|----------------------------------|--------||


Fammi sentire il cuore
G D
che grida dal dolore
Em C
e sputa il sangue finche puoi
G D C


Cammina a denti stretti
G D
vivi tra cielo e terra
Em C
e fai sentire che ci sei
G D C

* I seguenti fraseggi vanno suonati in sottofondo ai ritornelli qui sopra


E||----------------|--------------------|------------------------|
B||----------------|--------------------|------------------------|
G||-------14-b-r---|--12----------------|--14------------12--11--|
D||----------------|--------------------|------------------------|
A||----------------|--------------------|------------------------|
E||----------------|--------------------|------------------------|
...dolore

--------------|--------------------------12------|--17b-----17b-----|
--------------|----------------------15------12--|------------------|
--------------|----------12--14--14b-------------|------------------|
--14----------|----12/14-------------------------|------------------|
--------------|----------------------------------|------------------|
--------------|----------------------------------|------------------|
Cammina...

--17b-r---15----17------|------------------|-----14r-----------------|
------------------------|------------------|----------15-------------|
------------------------|------------------|--------------14b-r--12--|
------------------------|------------------|-------------------------|
------------------------|------------------|-------------------------|
------------------------|------------------|-------------------------|


------------------------|------------------------|--------------------|
------------------------|------------------------|--------------------|
--14b-----------14--12--|--11------------12--11--|--------------------|
------------------------|------------------------|--14----------------|
------------------------|------------------------|--------------------|
------------------------|------------------------|--------------------|
...ci sei

Cammina a denti stretti
G D
vivi tra cielo e terra
Em C
e fai sentire che ci sei
G D C

* I seguenti fraseggi (molto approssimativi dato che nella canzone non si
sentono
chiaramente) vanno suonati in sottofondo al ritornello qui sopra

E|---------3--------3-----|-------------------------|---------------------|
B|------3--------3--------|-------------------------|---------------------|
G|---5b-------5b-------3--|-------3--------3--------|--3---------------5b-|
D|------------------------|----5-----5--3-----5--3--|-----5---------------|
A|------------------------|-------------------------|---------------------|
E|------------------------|-------------------------|---------------------|
Do Cammina...


-------------------------|---------------------------|-----------3-----------|
------3------------------|---------------------------|--6b----------6--3--6--|
-(5)-----5--3--5p3----3--|--3h5p3--5p3h5--3--5-------|-----------------------|
-------------------5-----|----------------------5----|-----------------------|
-------------------------|---------------------------|-----------------------|
-------------------------|---------------------------|-----------------------|


--3----------6--------|--3----------------|
-----3--6b------------|-------------------|
----------------------|-------------------|
----------------------|-------------------|
----------------------|-------------------|
----------------------|-------------------|
...ci sei


E||------------------------|------------------------|---------------------||
B||------------------------|--------------------3---|----3----------------||
G||--------0--------0--2---|--------0--------0--2---|-------2b4r2-p-0-----||
D||-----2--------0-----2---|-----2--------0-----0---|------------------2--||
A||--3--------2--------0---|--3--------2------------|---------------------||
E||------------------------|------------------------|---------------------||

...ci sei

Auh!

Em (D) G (D) Em



/\/\/\/\/\/\/\/\ Trascrizione ad opera di : Antonio Inoki /\/\/\/\/\/\/\/\





Engine © 1999 - 2021 - Land63.com. e-mail:  Privacy | Norme sulla legalità