Informativa
Questo sito raccoglie dati statistici anonimi sulla navigazione, mediante cookie installati da terze parti autorizzate, rispettando la privacy dei tuoi dati personali e secondo le norme previste dalla legge. Continuando a navigare su questo sito, cliccando sulla pagina o semplicemente scrollando la pagina verso il basso, accetti il servizio, gli stessi cookie e rimuovi il messaggio.

    Maggiori informazioni.
A5
Home Tutti A-Z Testi Italiani A-Z Testi Stranieri A-Z Chiedi allo staff Drrunaway 19 Anni Fa
 Pino Daniele
Nuovi Artisti
1. Michael McDonald
2. Toninho Horta
3. Smooth Jazz vari
4. Double
5. Bronski Beat
6. Al Jarreau
7. Etta James
8. The Queen
9. The Isley Brothers
10. Spyro Gyra
11. Sister Sledge
12. Kool & the Gang
13. KC & the Sunshine Band
14. Earth Wind & Fire
15. Joe Sentieri
Nuovi Testi/Accordi
1. You Belong To Me
2. Sweet Freedom
3. Tuesday Heartbreaker
4. Love two times
5. It's just a thoght chords
6. I Say a little prayer
7. Cocaine - Clapton
8. Gigi (Concato) - vs. Live
9. Bejo Partido
10. Moby Dick



PINO DANIELE - Accordi - Senza e Te
Gestisci
--Key----Delay----Bpm: 72---Guitar--Piano-
TITOLO:  Senza 'e te
AUTORE: Pino Daniele


INTRO:

Lam Mim7 (x2)


Je te penzo accussi'

per ore ed ore

Je te voglio accussi'

te voglio ancora

E si chèsto nun 'è ammore

Ma nuje che campammo'affa'

E si chiove o jesce 'o sole

Je te voglio penza'

Pecchè senza 'e te

nun so' niente

|--------------------------0-2-7----|
|--------------------0-1-3----------|
|---------------0-2-----------------|
|---------0-2-4---------------------|
|----0-2----------------------------|
|--3--------------------------------|


Je te sento accussi'

comme 'o sango into 'e vene

si chiur 'l uòcchie .. si,
te voglio assaie bene
E si chèsto nun 'è ammore
Ma nuje che campammo'affa'
E si chiove o jesce 'o sole
Je te voglio penza'
Pecchè senza 'e te
nun so' niente



Pecchè' senza 'e te

'mmo' sient'

nun s'avvera 'manco 'a luna

Pecchè' senza 'e te to' giuro

je nun credo cchiù a nisciuno

je nun credo cchiù a nisciuno

a nisciuno, a nisciuno

Pecchè senza 'e te

nun so' niente

|--------------------------0-2-7----|
|--------------------0-1-3----------|
|---------------0-2-----------------|
|---------0-2-4---------------------|
|----0-2----------------------------|
|--3--------------------------------|

|----10/12-12-12--10--8--10---------|
|-----------------------------------|
|-12--------------------------------|
|-----------------------------------|
|-----------------------------------|
|-----------------------------------|

|--8-7-8--7-------------------------|
|-----------8/10---10/12--12-13-12--|
|-----------------------------------|
|-----------------------------------|
|-----------------------------------|
|-----------------------------------|

|-0---2--2/4-----5------------------|
|-----------------------------------|
|-1---2--2/4-----5------------------|
|-----------------------------------|
|-----------------------------------|
|-----------------------------------|

E si chèsto nun 'è ammore
Ma nuje che campammo'affa'
E si chiove o jesce 'o sole
Je te voglio penza'
Pecchè senza 'e te
nun so' niente
Pecchè' senza 'e te
'mmo' sient
nun s'avvera 'manco 'a luna
Pecchè' senza 'e te to' giuro
je nun credo cchiù a nisciuno
je nun credo cchiù a nisciuno
a nisciuno, a nisciuno
Pecchè senza 'e te
nun so' niente
Pecchè senza 'e te
nun so' niente
Pecchè senza 'e te
nun so' niente


--
***********************************

***********************************





Engine © 1999 - 2020 - Land63.com. e-mail:  Privacy | Norme sulla legalità