Informativa
Questo sito raccoglie dati statistici anonimi sulla navigazione, mediante cookie installati da terze parti autorizzate, rispettando la privacy dei tuoi dati personali e secondo le norme previste dalla legge. Continuando a navigare su questo sito, cliccando sulla pagina o semplicemente scrollando la pagina verso il basso, accetti il servizio, gli stessi cookie e rimuovi il messaggio.

    Maggiori informazioni.
A9
Home Tutti A-Z Testi Italiani A-Z Testi Stranieri A-Z Chiedi allo staff Drrunaway 19 Anni Fa
 Pino Daniele
Nuovi Artisti
1. Michael McDonald
2. Toninho Horta
3. Smooth Jazz vari
4. Double
5. Bronski Beat
6. Al Jarreau
7. Etta James
8. The Queen
9. The Isley Brothers
10. Spyro Gyra
11. Sister Sledge
12. Kool & the Gang
13. KC & the Sunshine Band
14. Earth Wind & Fire
15. Joe Sentieri
Nuovi Testi/Accordi
1. You Belong To Me
2. Sweet Freedom
3. Tuesday Heartbreaker
4. Love two times
5. It's just a thoght chords
6. I Say a little prayer
7. Cocaine - Clapton
8. Gigi (Concato) - vs. Live
9. Bejo Partido
10. Moby Dick



PINO DANIELE - Tablatura - Je So Pazzo
Gestisci
TAB e CRD by CHRIS '76
ARTISTA : PINO DANIELE

Intro : Questo è l'intro della canzone, che ho trascritto
per 2 chitarre ( una che "strumma" gli accordi e l'altra
dovrebbe suonare le note in tab ).

Potrei scrivervi anche una versione per una sola chitarra
fondendo accordi e note, ma risulterebbe secondo me
poco leggibile, cmq se proprio volete.....

Ho preferito fare una TAB chiara e leggibile senza
complicare le cose. Spero vi piaccia ^_^

~ = Bending

Em
e||---------------------------------------------------------------------|
B||---------------------------------------------------------------------|
G||---------------------------------------------------------------------|
D||---------------------------------------------------------------------|
A||---------------------------------------------------------------------|
E||---------------------------------------------------------------------|

DO7add7+
|----------------------------------------------------------------------|
|----------3~-------------------------------------------------------0--|
|--------------------0---2---3---2---0-----------0---2---3---2---0-----|
|--------------------------------------------2-------------------------|
|----------------------------------------------------------------------|
|----------------------------------------------------------------------|

B7
|---------------------------------------------------------------------||
|---------------------------------------------------------------------||
|--0------------------------------------0---2---3---2-----------------||
|-----------------------------------2-------------------4---3---2---0-||
|---------------------------------------------------------------------||
|---------------------------------------------------------------------||

Ecco i diagrammi degli accordi :

Em C7add7+ B7
|--0----|---3-----|----2----|
|--0----|---0-----|----0----|
|--0----|---3-----|----2----|
|--2----|---2-----|----1----|
|--2----|---3-----|----2----|
|--0----|---------|---------|

Em
Je so' pazzo, je so' pazzo,
C7add7+ B7
e vogl' essere chi vogl'io ascite fore da casa mia
Em
je so' pazzo, je so' pazzo
C7add7+ B7
ho il popolo che mi aspetta e scusate vado di fretta
Am7 B7 Em
non mi date sempre ragione, io lo so che sono un errore
Am7 B7 Em
nella vita voglio vivere almeno un giorno da leone
Am7 B7 Em
e lo Stato questa volta non mi deve condannare
MIm DO7add7+ SI7 (MUTE)
pecchè so'pazzo, je so' pazzo e oggi voglio parlare

[Come Sopra]

Je so' pazzo, je so' pazzo
Si s'ntosta 'a nervatura, metto a tutt' 'nfaccia o' muro
Je so' pazzo, je so' pazzo
E chi dice che Masaniello poi negro non sia più bello
E non sono menomato, sono pure diplomato
E la faccia nera l'ho dipinta per essere notato
Masaniello è cresciuto, Masaniello è turnato
Je so' pazzo, je so' pazzo
Nun ce scassate 'o cazzo.

Commenti e correzioni ben gradite ^_^

--
Ciao da:

---------------------------
CHRIS '76
---------------------------
---------------------------

"They made the world so hard, everyday we got to keep on fighting"

( Robert Nesta Marley )





Engine © 1999 - 2020 - Land63.com. e-mail:  Privacy | Norme sulla legalità