Informativa
Questo sito raccoglie dati statistici anonimi sulla navigazione, mediante cookie installati da terze parti autorizzate, rispettando la privacy dei tuoi dati personali e secondo le norme previste dalla legge. Continuando a navigare su questo sito, cliccando sulla pagina o semplicemente scrollando la pagina verso il basso, accetti il servizio, gli stessi cookie e rimuovi il messaggio.

    Maggiori informazioni.
A11
Home Tutti A-Z Testi Italiani A-Z Testi Stranieri A-Z Chiedi allo staff Drrunaway 19 Anni Fa
 Pino Daniele
Nuovi Artisti
1. Michael McDonald
2. Toninho Horta
3. Smooth Jazz vari
4. Double
5. Bronski Beat
6. Al Jarreau
7. Etta James
8. The Queen
9. The Isley Brothers
10. Spyro Gyra
11. Sister Sledge
12. Kool & the Gang
13. KC & the Sunshine Band
14. Earth Wind & Fire
15. Joe Sentieri
Nuovi Testi/Accordi
1. You Belong To Me
2. Sweet Freedom
3. Tuesday Heartbreaker
4. Love two times
5. It's just a thoght chords
6. I Say a little prayer
7. Cocaine - Clapton
8. Gigi (Concato) - vs. Live
9. Bejo Partido
10. Moby Dick



PINO DANIELE - Tablatura - Alleria
Gestisci
ALLERIA
Pino Daniele

INTRO:

A7+ B-7/E A7+ B-7/E A7+ B-7/E
|-------12*-7----------------|-----------------|-----------------|
|----2------7--5--3--2-----3-|2--2--3--5-------|-2--2--3--5------|
|----1------9-----------4----|------------4--2-|------------4--2-|
|----2-----------------------|-----------------|-----------------|
|----0------7----------------|0----------------|-0---------------|
|-0--------------------------|------------0----|------------0----|

G#-7 Db F#- A7
|--------------------|-------------------------------------------|
|--4--4--------6--6--|----------------------------------------5--|
|--4-----4-----4-----|-----2--2-------2-------------2----4/6-----|
|--6--------6--6-----|2h4----------4-------------2---------------|
|--------------4-----|------------------------0------------------|
|--4-----------------|2---------2--------------------------------|

D7+ B7 B-7/E E9
|------5--5--------------2--|--12--12--9--9----------------------|
|-5h7-----------------7--0--|----------------10--10--7--7--5--7--|
|------------------6-----2--|------------------------------------|
|---------------7--------1--|------------------------------------|
|-5----------5-----------2--|------------------------------------|
|---------------------------|------0------0------0------0--------|

A C#- C- B-7 E9 E9b
|--5---4--4h5--5----------|--------------------------------------|
|--5---5--5----5----------|----------------------7-----------6---|
|--6---4----------54--2--|--4p2-----2--------7-----------7------|
|-------------------------|-------4--------6-----------6---------|
|------4------------------|--2----------7-----------7------------|
|--5----------------------|--------------------------------------|

A B-7/E
Passa 'o tiempo e che fa'
A7+ B-7/E E7
Tutto cresce e se ne va
A B-7/E G#- Db
Passa 'o tiempo e nun vuo' bene cchiù
F#- A7 D7+ B7
Voglio 'o sole pe' m'asciuttà
B-7/E E9 A C#- C- B-7 E9b
Voglio n'ora pe' m'arricurdà
A A#dim B-7
Alleria pe' nu mumento
E7
te vuò scordà
B-7 E7
che hai bisogno d'alleria
C#-
quant'haje sufferto
A7
'o ssape sulo Dio
D G# C#-7
E saglie 'a voglia d'alluccà
F# B-7
Ca nun c'azzicche niente tu
D- C#- F#
Vulive sulamente dà'
B-7 Bb7+ E9b
L'alleria se ne va
A B-7/E
Passa 'o tiempo e che fa'
A7+ B-7/E E7
Se la mia voce cambierà
A B-7/E G#- Db
Passa 'o tiempo e nun te cride cchiù

F#- A7
E ti resta solo quello che non vuoi
D7+ B7
E non ti aspetti niente perchè lo sai
B-7/E E9 A C#- C- B-7 E9b
Che passa 'o tiempo ma tu non cresci mai

ASSOLO:

A A#dim B-7 E7
|--------------------------------|-------------------------|
|---------------------5-5---7-5--|-------------------------|
|-----2-2---4-2---5/6-----6-----7|6-4-7-6-4----------------|
|-3/4-----4----------------------|-----------7-6-4-7-6--4--|
|--------------------------------|------------------------7|
|--------------------------------|-------------------------|
B-7 E7
|-------------------7--------------------------------------|
|---------7--10--9-----10--9-----7-------------------------|
|------7----------------------7-----9---------9---------9--|
|---9----------------------------------10/11-----10/11-----|
|----------------------------------------------------------|
|----------------------------------------------------------|
C#- A7
|------------------------|
|------------------------|
|------------------------|
|-11--10--9--9--7-----7--|
|------------------9-----|
|------------------------|

D G# C#-7
E saglie 'a voglia d'alluccà
F# B-7
Ca nun c'azzicche niente tu
D- C#- F#
Vulive sulamente dà'
B-7 Bb7+
L'alleria se ne va.

ACCORDI:

B-7/E E9 E9b D7+ A# dim Bb7+
-2- -0- -6- -5- -0- -1-
-3- -7- -6- -7- -2- -3-
-2- -7- -7- -6- -0- -2-
-4- -6- -6- -7- -2- -3-
-2- -7- -7- -5- -1- -1-
-0- -0- --- --- --- ---





Engine © 1999 - 2021 - Land63.com. e-mail:  Privacy | Norme sulla legalità