Informativa
Questo sito raccoglie dati statistici anonimi sulla navigazione, mediante cookie installati da terze parti autorizzate, rispettando la privacy dei tuoi dati personali e secondo le norme previste dalla legge. Continuando a navigare su questo sito, cliccando sulla pagina o semplicemente scrollando la pagina verso il basso, accetti il servizio, gli stessi cookie e rimuovi il messaggio.

    Maggiori informazioni.
A10
Home Tutti A-Z Testi Italiani A-Z Testi Stranieri A-Z Chiedi allo staff Drrunaway 19 Anni Fa
 Pino Daniele
Nuovi Artisti
1. Michael McDonald
2. Toninho Horta
3. Smooth Jazz vari
4. Double
5. Bronski Beat
6. Al Jarreau
7. Etta James
8. The Queen
9. The Isley Brothers
10. Spyro Gyra
11. Sister Sledge
12. Kool & the Gang
13. KC & the Sunshine Band
14. Earth Wind & Fire
15. Joe Sentieri
Nuovi Testi/Accordi
1. You Belong To Me
2. Sweet Freedom
3. Tuesday Heartbreaker
4. Love two times
5. It's just a thoght chords
6. I Say a little prayer
7. Cocaine - Clapton
8. Gigi (Concato) - vs. Live
9. Bejo Partido
10. Moby Dick



PINO DANIELE - Tablatura - A Me Me Piace o' Blues
Gestisci
A ME ME PIACE O'BLUES
Pino Daniele

Ogni battuta rappresenta 1/4.
Per suonare le tab mantenere comunque le posizioni classiche (barrè)
degli accordi indicati anche se non si suonano tutte le
note contemporaneamente.

Intro :

^=battere col pollice sulle corde ("more than words" docet)
s=slide

Am7 Gm7
e|-------------------------------5---5-----3----|
b|----------------------3s5--3---8---8-----6----|
g|---2s3--2----2s3--2---2s4--2---6---6-----4----|
d|---2s3--2----2s3--2------------5---5-----3----| [Tab1]
a|-------------------------------7---7-----5----|
E|-------------------------------5---5-----3----|

E7 F#7 Gm7 A7 B7
e|-------------------------------0----2----3----5----7---|
b|----------------------3s5--3---3----5----6----8----10--|
g|---2s3--2----2s3--2---2s4--2---1----3----4----6----8---|
d|---2s3--2----2s3--2------------2----2----3----5----7---| [Tab2]
a|-------------------------------2----4----5----7----9---|
E|-------------------------------0----2----3----5----7---|

e|----7----------------|
b|----6----------------|
g|--------7---4--------|
d|---------------------| ( :- tab di passaggio dall'intro al verso)
a|---------------------|
E|---------------------|

(Verse 1)

Bm7 D7 G F#7
|----2-|-----2-|-------3-|-------2----2----||
|----3-|-----1-|-------3-|-------2----2----||
|----2-|-----2-|-------4-|-------3----3----||
|------|-------|---------|-----------------|| ( x 2 )
|-2----|-4-5---|---------|-----------------|| [Tab3]
|------|-------|--0--3---|---3-2-----------||
^
|_+ vel__|

A me me piace o'blues e tutt'e juorne 'aggià cantà

pecchè so stato zitto e mò è o mumento e me sfuca

Bm7 D7 G7 E7
|----2--|------2-|---------3-|----0---0-|
|----3--|------1-|---------3-|----3---3-|
|----2--|------2-|---------4-|----1---1-|
|-------|----0---|-----------|----------| ( x 1 )
|-2-----|--4-----|-----------|----------| [Tab4]
|-------|--------|--0---3----|--0-------|
^
|_+ vel_|

Sono volgare e so che nella vita suonerò

G7 F#7
|-------3-|-------2----2----|
|-------3-|-------2----2----|
|-------4-|-------3----3----| ( x 1 )
|---------|-----------------|
|---------|-----------------| [Tab5]
|--0-3----|---3-2-----------|
^
|__+ vel_|

pe' chi tene 'e compless e nun 'e vò


(2 Verse)
[Tab3]
A me me piace o' zucchero che scenne 'int'o cafè
[Tab3]
e cu' na' presa r'annice ma chi è meglio e' me
[Tab4]
Tengo 'a cazzimma e faccio tutto quello che mi va
[Tab5] [Tab2] (:-invece del FA#7 )
Pecchè so' blues e nun voglio cagnà

(Chorus - ritmo sambato)

D7 G
Ma po' nce resta 'o mare
F#7 Bm7
e a pacienza e' suppurtà
D7 F#7
a' gente ca cammina
F#7 Bm7
miezo 'a via pe sbraità
D7 G
I vengo appriesso a te
F#7 Bm7
pecchè so nato 'cca
Db9 C9
sai che so niro, ( niro )
[Tab3]
ma nun te pozzo lassà

(Strum. [Tab3] (x 3))

A me me piace chi da 'nfaccia
senza 'e se fermà
chi è tuosto e po s'arape
pecchè sape c'adda dà
alza 'o vraccio 'e cchiù
pe nun te fa 'mbruglià
e dalle 'nfaccia senza te ferma

A me me piace 'o blues
e tutt'e juorne aggià cantà
pecchè m'abbrucia 'o fronte
'e 'na manera aggià sfuca
tengo a cazzimma e faccio
tutto quello che mi va
pecchè so blues e nun voglio cagnà

Ma po' nce resta 'o mare
e a pacienza e' suppurtà
a' gente ca cammina
miezo 'a via pe sbraità
I vengo appriesso a te
pecchè so nato 'cca
sai che so niro, ( niro )
ma nun te pozzo lassà



A me me piace o'blues e tutt'e juorne 'aggià cantà
pecchè so stato zitto e mò è o mumento e me sfuca
Sono volgare e so che nella vita suonerò
pe' chi tene 'e compless e nun 'e vò
A me me piace o' zucchero che scenne 'int'o cafè
e cu' na' presa r'annice ma chi è meglio e' me
Tengo 'a cazzimma e faccio tutto quello che mi va
Pecchè so' blues e nun voglio cagnà

Ma po' nce resta 'o mare
e a pacienza e' suppurtà
a' gente ca cammina
miezo 'a via pe sbraità
I vengo appriesso a te
pecchè so nato 'cca
sai che so niro, ( niro )
ma nun te pozzo lassà

A me me piace chi da 'nfaccia
senza 'e se fermà
chi è tuosto e po s'arape
pecchè sape c'adda dà
alza 'o vraccio 'e cchiù
pe nun te fa 'mbruglià
e dalle 'nfaccia senza te ferma'

A me me piace 'o blues
e tutt'e juorne aggià cantà
pecchè m'abbrucia 'o fronte
'e 'na manera aggià sfuca
tengo a cazzimma e faccio
tutto quello che mi va
pecchè so' blues e nun voglio cagnà

Ma po' nce resta 'o mare
e a pacienza e' suppurtà
a' gente ca cammina
miezo 'a via pe sbraità
I vengo appriesso a te
pecchè so nato 'cca
sai che so niro,
ma nun te pozzo lassà

E sona mo'





Engine © 1999 - 2021 - Land63.com. e-mail:  Privacy | Norme sulla legalità