Informativa
Questo sito raccoglie dati statistici anonimi sulla navigazione, mediante cookie installati da terze parti autorizzate, rispettando la privacy dei tuoi dati personali e secondo le norme previste dalla legge. Continuando a navigare su questo sito, cliccando sulla pagina o semplicemente scrollando la pagina verso il basso, accetti il servizio, gli stessi cookie e rimuovi il messaggio.

    Maggiori informazioni.
A4
Home Tutti A-Z Testi Italiani A-Z Testi Stranieri A-Z Chiedi allo staff Drrunaway 19 Anni Fa
 Pat Metheny
Nuovi Artisti
1. Michael McDonald
2. Toninho Horta
3. Smooth Jazz vari
4. Double
5. Bronski Beat
6. Al Jarreau
7. Etta James
8. The Queen
9. The Isley Brothers
10. Spyro Gyra
11. Sister Sledge
12. Kool & the Gang
13. KC & the Sunshine Band
14. Earth Wind & Fire
15. Joe Sentieri
Nuovi Testi/Accordi
1. Je so pazzo
2. You Belong To Me
3. Sweet Freedom
4. Tuesday Heartbreaker
5. Love two times
6. It's just a thoght chords
7. I Say a little prayer
8. Cocaine - Clapton
9. Gigi (Concato) - vs. Live
10. Bejo Partido



PAT METHENY - Tablatura - Praise
Gestisci
"PRAISE"
by Pat Metheny and Lyle Mays (from "First Circle")
In 4/4 (except for the asterixed (*) measures of 2/4) and in keys of D:
(at first) then E:
----------------------------------------------------------------------


D / A7sus A7 | D / G D/F# |* Em D | A / A/G / |

D/F# / G D | A7sus / A7 / | D / G A |

D / A7sus A7 | D / G / | Em / A / |* A/G / |

D/F# / G / | A7sus / A7 / |

D / A7sus A7 | D / G / | Em / A / |* A/G / |

D/F# / G / | A7sus / A7 / |

Gma7 / / / | F#7sus / F#7 / | Bm / / / | C/D / G / |

Em D C G/B | A / A/G / | D/F# / G / | A7sus / A7 / |

D / A7sus A7 | D / G / | Em / A / |* A/G / |

D/F# / G / | A7sus / A7 / |

D / G / | D / G / | G / C / | G / C / | A / D / | A / D / |

Tab of Guitar Chords of middle section:
--9--7--5--|--7---9--10--|--9--7--5--|--7--5--3--|
-10--8--7--|--8--10--12--|-10--8--7--|--8--7--5--|
--9--7--6--|--7---9--12--|--9--7--6--|--7--6--4--|
--0--0--0--|--0---0---0--|--0--0--0--|--0--0--0--|
-----------|-------------|-----------|-----------|
-----------|-------------|-----------|-----------|

Bm / Bm/A / | Bm/G / Bm/F# / | Em / / / | A7sus / A7 / |

(D) (D/C) (G/B) (Gm/Bb) (D)
--5----------|---5-----------|---3---2---0---|---3---2---0---2---|
--7---8---7--|---7---8---7---|---3---3---3---|---3---3---3---3---|
--7---7---7--|---5---5---5---|---4---4---4---|---3---3---3---2---|
--0---0---0--|---0---0---0---|---0---0---0---|---0---0---0---0---|
-------------|---------------|---------------|-------------------|
-------------|---------------|---------------|-------------------|

E9/G# / / / | A / F#7/A# / | B7sus / B7 / |

(rit.) B7sus B7 B7sus B7 |

E / B7sus B7 | E / A E/G# | F#m / B / |* B/A / |

E/G#/ A / | B7sus / B7 / |

E / B7sus B7 | E / A E/G# | F#m / B / |* B/A / |

E/G# / A / | B7sus / B7 / |

Ama7 / / / | G#7sus / G#7 / | C#m / / / | D / A / |

D E D A | B / B/A / |E/G# / A E/G# | B7sus / B7 /

E / B7sus B7 | E / A / | F#m / B / |* B/A / |

E/G# / A / |

B7sus / / / | / / / / | / / / / | / / / / |

E / A E/G# | F#m7 / F#m7/B / | Cma7 / / / |

Repeat this last line x 10, then Cmaj7 / / / |, then end on E.





Engine © 1999 - 2019 - Land63.com. e-mail:  Privacy | Norme sulla legalità