Informativa
Questo sito raccoglie dati statistici anonimi sulla navigazione, mediante cookie installati da terze parti autorizzate, rispettando la privacy dei tuoi dati personali e secondo le norme previste dalla legge. Continuando a navigare su questo sito, cliccando sulla pagina o semplicemente scrollando la pagina verso il basso, accetti il servizio, gli stessi cookie e rimuovi il messaggio.

    Maggiori informazioni.
A7
Home Tutti A-Z Testi Italiani A-Z Testi Stranieri A-Z Chiedi allo staff Drrunaway 19 Anni Fa
 Saxon
Nuovi Artisti
1. Michael McDonald
2. Toninho Horta
3. Smooth Jazz vari
4. Double
5. Bronski Beat
6. Al Jarreau
7. Etta James
8. The Queen
9. The Isley Brothers
10. Spyro Gyra
11. Sister Sledge
12. Kool & the Gang
13. KC & the Sunshine Band
14. Earth Wind & Fire
15. Joe Sentieri
Nuovi Testi/Accordi
1. You Belong To Me
2. Sweet Freedom
3. Tuesday Heartbreaker
4. Love two times
5. It's just a thoght chords
6. I Say a little prayer
7. Cocaine - Clapton
8. Gigi (Concato) - vs. Live
9. Bejo Partido
10. Moby Dick



SAXON - Accordi - Denim And Leather
Gestisci
--Key----Delay----Bpm: 72---Guitar--Piano-
----------------------------------------------------------------------
Denim & Leather By: SAXON
Written By : Byford/Quinn/Oliver/Dawson/Gill
Transcribed By: John Wahlèn.

This is a very simple song, it´s based on two riffs.
This song is complete except for the solo.
Standard tuning.

Verse riff: (Repeat during verse)
e|-----------------------------------------------------|
B|-----------------------------------------------------|
G|-----------------------------------------------------|
D|-6-6-----6~----6-6-----6~----6-6-----6~---x-9----x-9-|
A|-6-6--4h6------6-6--4h6------6-6--4h6-----9-9----9-9-|
E|-4-4-----------4-4-----------4-4----------7-7----7-7-|

Chorus riff: (Twice during chorus)
e|-----------------------------------------------|
B|-----------------------------------------------|
G|-----------------------------------------------|
D|--6-----9---12----9-9--99-8-6---6--8----6-6--6-|
A|--6-----9---12----9-9--99-8-6---6--8---6--6--6-|
E|--4-----7---10----7-7--77-6-4---4--6--7---6--4-|

For the solo: Keep playing the same riff-pattern.

Verse: 1
Where were you in '79 when the dam began to burst
Did you check us out down at the local show
Were you wearing denim, wearing leather
Did you run down to the front
Did you queue for your ticket through the ice and snow

Chorus:
Denim and Leather
Brought us all together
It was you that set the spirit free
Denim and Leather
Brought us all together
It was you that set the spirit free

Verse: 2
Did you read the music paper from the back and to the front
Did you find out where to see your favorite band
Did you listen to the radio every Friday night
Did hang around your local record store

Chorus.

Verse:3
Do you dream of playing guitar or smashing up the drums
Maybe you can learn to play the bass
You can always be a singer like me and front the band
When on the stage we wait at your command

Chorus.

Verse: 4
It was you - that set the spirit free
It was you - that put us here today
It was you - that filled the concert halls
It was you - that set the spirit free

Chorus.
(Repeat to end)

______________________________________________________





Engine © 1999 - 2020 - Land63.com. e-mail:  Privacy | Norme sulla legalità