Informativa
Questo sito raccoglie dati statistici anonimi sulla navigazione, mediante cookie installati da terze parti autorizzate, rispettando la privacy dei tuoi dati personali e secondo le norme previste dalla legge. Continuando a navigare su questo sito, cliccando sulla pagina o semplicemente scrollando la pagina verso il basso, accetti il servizio, gli stessi cookie e rimuovi il messaggio.

    Maggiori informazioni.
A5
Home Tutti A-Z Testi Italiani A-Z Testi Stranieri A-Z Chiedi allo staff Drrunaway 19 Anni Fa
 Rem
Nuovi Artisti
1. Michael McDonald
2. Toninho Horta
3. Smooth Jazz vari
4. Double
5. Bronski Beat
6. Al Jarreau
7. Etta James
8. The Queen
9. The Isley Brothers
10. Spyro Gyra
11. Sister Sledge
12. Kool & the Gang
13. KC & the Sunshine Band
14. Earth Wind & Fire
15. Joe Sentieri
Nuovi Testi/Accordi
1. You Belong To Me
2. Sweet Freedom
3. Tuesday Heartbreaker
4. Love two times
5. It's just a thoght chords
6. I Say a little prayer
7. Cocaine - Clapton
8. Gigi (Concato) - vs. Live
9. Bejo Partido
10. Moby Dick



REM - Accordi - Auctioneer
Gestisci
--Key----Delay----Bpm: 72---Guitar--Piano-
#

# For the latest collection of R.E.M. chords & tab, go to
#
# If you have any corrections or additions to this file, please email them
#

AUCTIONEER (ANOTHER ENGINE) (Version 1)

Main riff:

D(1) ------0---------|2---------------| (tune e(1) down a whole step)
B(2) ----0-----0-----|--2---3---2h3p2-|
--0---------0---|----2-----------|
2-------------2-|

Lyrics:

She didn't want to get pinned down by her prior town
Get me to the train on time, here take this nickel make a dime
Take this penny and make it into a necklace when I leave
What is at the other end, I don't know another friend
Another wife, another morning spent
Listen, listen to the auctioneer
Another engine, another engine

We never wrote the reasons that I need explained
Some things are givens, and others get away
This time its for myself you call it what you may
Okay, we won't say goodbye so long, so much more
Listen to the auctioneer
Another engine, another engine

Listen to the bargain holler
Listen to the barter holler
Listen to the auctioneer

Get me to the train on time here take this nickel make a dime
Take this penny and make it into a necklace when I leave
What is at the other end, an I don't know another friend
Another wife, another morning spent
Listen to the auctioneer
Another engine, another engine

Do I stand the bargain holler?
Listen to the barter holler
Listen to the auctioneer



AUCTIONEER (ANOTHER ENGINE) (Version 2)

Transcribed by Mike Iafrate

Main Figure (intro/verses)

e-------------------------------------------------------------||
B-------------------------------------------------------------||
G-------------7----------------------------------------------O||(repeat)
D---------9-------9--------14--14--14--12--11----------------O||
A-----7---------------------0---0---0---0---0-----------------||
E-0-------------------0---------------------------------------||

(During the intro and breakdown, Peter sticks to this. During the verse,
however,
he adlibs a bit and instead of hitting the second "7" of the riff, he will
substitute
by hitting the high E string or some other random note.)

Pre-chorus

Lis-ten, lis-ten to the auc-tion-eer. A-no-ther en-gine, a-no-ther en-gine.
Chord fingerings

e--0-------0---
B--0-------0---
G--10------9---
D--10------9---
A--8-------7---
E--8-------7---

Chorus riff
e-0----0----0---0-0-0-0-0-0--------0----0----0----0--0--0--0--0--------
B-8---10---12---5-5-5-5-5-5-etc.---8---10---12---15-15-15-15-15-etc.---

End figure (coming out of chorus riff at end of song)
e-----------------------
B-----------------------
G-------------9---------
D---------9---9---------
A-----7-------7---------
E-0-----------0---------





Engine © 1999 - 2019 - Land63.com. e-mail:  Privacy | Norme sulla legalità