Informativa
Questo sito raccoglie dati statistici anonimi sulla navigazione, mediante cookie installati da terze parti autorizzate, rispettando la privacy dei tuoi dati personali e secondo le norme previste dalla legge. Continuando a navigare su questo sito, cliccando sulla pagina o semplicemente scrollando la pagina verso il basso, accetti il servizio, gli stessi cookie e rimuovi il messaggio.

    Maggiori informazioni.
A11
Home Tutti A-Z Testi Italiani A-Z Testi Stranieri A-Z Chiedi allo staff Drrunaway 19 Anni Fa
 Magnet Monster
Nuovi Artisti
1. Michael McDonald
2. Toninho Horta
3. Smooth Jazz vari
4. Double
5. Bronski Beat
6. Al Jarreau
7. Etta James
8. The Queen
9. The Isley Brothers
10. Spyro Gyra
11. Sister Sledge
12. Kool & the Gang
13. KC & the Sunshine Band
14. Earth Wind & Fire
15. Joe Sentieri
Nuovi Testi/Accordi
1. You Belong To Me
2. Sweet Freedom
3. Tuesday Heartbreaker
4. Love two times
5. It's just a thoght chords
6. I Say a little prayer
7. Cocaine - Clapton
8. Gigi (Concato) - vs. Live
9. Bejo Partido
10. Moby Dick



MAGNET MONSTER - Tablatura - Sins A Good Mans Brother
Gestisci
Monster Magnet - Sin's A good man's brother
~~~~~~~~~~~~~~~~~~~~~~~~~~~~~~~~~~~~~~~~~~~

Tune your guitar down 1/2 a step

Tabbed out by Bazz and Cazy,
Hey some more stuff from SPINE OF GOD

Intro
e|--------------------|--------------------|
B|--------------------|--------------------| repeat 4*
G|--------------------|--------------------|
D|--------------------|--------------------|
A|--------5---5h7-5h7-|--------5-7p5-------|
E|0-0h5h7---7---------|0-0h5h7-------7-5-3-|

The last he plays this: (the 4th time)
e|--------------------|--------------------|
B|--------------------|----------77x77-----|
G|--------------------|----------77x77-----|
D|--------------------|----------77x77-----|
A|--------5---5h7-5h7-|----------55x55-----|
E|0-0h5h7---7---------|0-0h5h7-0-----------|
^listen how to play this..

Now comes the main part

e:-----------------------------------------------| Listen when and how
B:---------------------------------------------3-| to play this main
G|---------------------------------------------2-| part...
D|----------------------------------------2----0-|
A|--------5---5h75h7--------5-7p5---------2------|
E|--0-5h7---7---------0-5h7--------7-5-3--0------|

-----------
---3----7--
Somewhere 'round 1:20 he does ---2----7--
-2-0-2--7--
-2---2--5--
-0---0-----

the rythm changes now to two chords with a lead played over it
the chords are:
Dsus4 E
e|-0-| |---|
B|-3-| |---|
G|-2-| |-1-|
D|-0-| |-2-|
A|---| |-2-|
E|---| |-0-|

Little lead

e|------------------------------------------------
B|------------------------------------------------
G|-7b9~~--9b12~~-7-7-7b9~~/12b15~~~---------------
D|------------------------------------------------
A|------------------------------------------------
E|------------------------------------------------

At the end when he does that D_thing again then
e|---------------------------------------------------------------------------
B|---------------------------------------------------------------------------
G|---------------------------------------------------------------------------
D|-5-6-7-8-9---10-11-12-13-14------------------------------------------------
A|-5-6-7-8-9---10-11-12-13-14------------------------------------------------
E|-3-4-5-6-7----8--9-10-11-12------------------------------------------------

He does this twice after the second time slide down from 14
14
12

Once again a great song by Dave...

:A friend with weed is a friend indeed:

i'm working on some other songs and i got a pretty good idea how to play
a bunch of others! so if you enjoy these tabs and find them usefull let me
know and i'll tab out some more MM stuff
Also if you got requests or something let me know!





Engine © 1999 - 2021 - Land63.com. e-mail:  Privacy | Norme sulla legalità