Informativa
Questo sito raccoglie dati statistici anonimi sulla navigazione, mediante cookie installati da terze parti autorizzate, rispettando la privacy dei tuoi dati personali e secondo le norme previste dalla legge. Continuando a navigare su questo sito, cliccando sulla pagina o semplicemente scrollando la pagina verso il basso, accetti il servizio, gli stessi cookie e rimuovi il messaggio.

    Maggiori informazioni.
A5
Home Tutti A-Z Testi Italiani A-Z Testi Stranieri A-Z Chiedi allo staff Drrunaway 19 Anni Fa
 Pat Metheny
Nuovi Artisti
1. Michael McDonald
2. Toninho Horta
3. Smooth Jazz vari
4. Double
5. Bronski Beat
6. Al Jarreau
7. Etta James
8. The Queen
9. The Isley Brothers
10. Spyro Gyra
11. Sister Sledge
12. Kool & the Gang
13. KC & the Sunshine Band
14. Earth Wind & Fire
15. Joe Sentieri
Nuovi Testi/Accordi
1. You Belong To Me
2. Sweet Freedom
3. Tuesday Heartbreaker
4. Love two times
5. It's just a thoght chords
6. I Say a little prayer
7. Cocaine - Clapton
8. Gigi (Concato) - vs. Live
9. Bejo Partido
10. Moby Dick



PAT METHENY - Tablatura - Third Wind
Gestisci
Hello People

This Tab contains the unbelievable Metheny's flight over the
first break in "Third Wind" ("Still Life - Talking" album), as I was
able to figure out.
Time is 4/4. Begin with a quaver silence. All tabbed notes are
semiquavers. A " ^ " means hammering or pulling down, and a " / " means
sliding up.
If your ears say there is something wrong, please let me know.



| | | | | | | |

E |------------------------------------|-------------------------------------|
B |------------------------------------|-------------------------------------|
G |------------------------------------|---------------------4^3----3-----2^-|
D |------------7^6----------6----7^6---|-5---4----3---2-3^-4-----5----4^5----|
A |-------6--8-----9--6^7^8----8-----8-|---7---6----5------------------------|
E |-x-x-8------------------------------|-------------------------------------|

E |------------------------------------|-------6-----------------------------|
B |---3^2----3^1------4^2------5^3-----|-6^7^8----9-7^6----6-----------------|
G |-3-----3------3/4------4/5------5/8-|----------------8----8^6-------------|
D |------------------------------------|-------------------------9^-6---5----|
A |------------------------------------|------------------------------7---5--|
E |------------------------------------|-------------------------------------|

Fm
E |-------
B |-------
G |-------
D |-3----- ...
A |-------
E |-------





Engine © 1999 - 2019 - Land63.com. e-mail:  Privacy | Norme sulla legalità