Informativa
Questo sito raccoglie dati statistici anonimi sulla navigazione, mediante cookie installati da terze parti autorizzate, rispettando la privacy dei tuoi dati personali e secondo le norme previste dalla legge. Continuando a navigare su questo sito, cliccando sulla pagina o semplicemente scrollando la pagina verso il basso, accetti il servizio, gli stessi cookie e rimuovi il messaggio.

    Maggiori informazioni.
A5
Home Tutti A-Z Testi Italiani A-Z Testi Stranieri A-Z Chiedi allo staff Drrunaway 19 Anni Fa
 Pat Metheny
Nuovi Artisti
1. Michael McDonald
2. Toninho Horta
3. Smooth Jazz vari
4. Double
5. Bronski Beat
6. Al Jarreau
7. Etta James
8. The Queen
9. The Isley Brothers
10. Spyro Gyra
11. Sister Sledge
12. Kool & the Gang
13. KC & the Sunshine Band
14. Earth Wind & Fire
15. Joe Sentieri
Nuovi Testi/Accordi
1. You Belong To Me
2. Sweet Freedom
3. Tuesday Heartbreaker
4. Love two times
5. It's just a thoght chords
6. I Say a little prayer
7. Cocaine - Clapton
8. Gigi (Concato) - vs. Live
9. Bejo Partido
10. Moby Dick



PAT METHENY - Tablatura - Song For Bilbao
Gestisci
Song for Bilbao - Pat Metheny

G ------|------|-------|-----|-------|-----|-------|-----|-------|----
D ------|------|---5---|-5-5-|---5---|-5-5-|---6---|-6-6-|---5---|-5-5
A ------|------|-3---3-|-----|-3---3-|-----|-4---4-|-----|-3---3-|----
E ------|------|-------|-----|-------|-----|-------|-----|-------|----

G -|-------|-----|-------|-----|-------|-----|-------|-----|-----|----
D -|---5---|-5-5-|---5---|-5-5-|---6---|-6-6-|---5---|-5-5-|-----|----
A -|-3---3-|-----|-3---3-|-----|-4---4-|-----|-3---3-|-----|-0-1-|---0
E -|-------|-----|-------|-----|-------|-----|-------|-----|-----|-3--

G ---|-------|---|---0---|-0-0-|---0---|-0-0-|---1---|-1-1-|---0---|-0
D ---|-------|---|-------|-----|-------|-----|-------|-----|-------|--
A ---|-----0-|-2-|-3---3-|-----|-3---3-|-----|-4---4-|-----|-3---3-|--
E -1-|-3-2---|---|-------|-----|-------|-----|-------|-----|-------|--

G -0-|---0---|-0-0-|---0---|-0-0-|---1---|-1-1-|---0---|-0-0-|---0---|
D ---|-------|-----|-------|-----|-------|-----|-------|-----|-------|
A ---|-3---3-|-----|-3---3-|-----|-4---4-|-----|-3---3-|-----|-3---3-|
E ---|-------|-----|-------|-----|-------|-----|-------|-----|-------|

G -0-0-|---0---|-0-0-|---1---|-1-1-|---0---|-0-0-|-----|-------|------
D -----|-------|-----|-------|-----|-------|-----|-----|-------|------
A -----|-3---3-|-----|-4---4-|-----|-3---3-|-----|-0-1-|---0---|-----0
E -----|-------|-----|-------|-----|-------|-----|-----|-3---1-|-3-2--

G -|---|---0---|-0-0-|---0---|-0-0-|---1---|-1-1-|---0---|-0-0-|---0--
D -|---|-------|-----|-------|-----|-------|-----|-------|-----|------
A -|-2-|-3---3-|-----|-3---3-|-----|-4---4-|-----|-3---3-|-----|-3---3
E -|---|-------|-----|-------|-----|-------|-----|-------|-----|------

G -|-0-0-|---0---|-0-0-|---1---|-1-1-|---0---|-0-0-|---0---|-0-0-|---0
D -|-----|-------|-----|-------|-----|-------|-----|-------|-----|----
A -|-----|-3---3-|-----|-4---4-|-----|-3---3-|-----|-3---3-|-----|-3--
E -|-----|-------|-----|-------|-----|-------|-----|-------|-----|----

G ---|-0-0-|---1---|-1-1-|---0---|-0-0-|-----|-------|-------|---|---0
D ---|-----|-------|-----|-------|-----|-----|-------|-------|---|----
A -3-|-----|-4---4-|-----|-3---3-|-----|-0-1-|---0---|-----0-|-2-|-3--
E ---|-----|-------|-----|-------|-----|-----|-3---1-|-3-2---|---|----

G ---|-0-0-|---0---|-0-0-|---1---|-1-1-|---0---|-0-0-|---0---|-0-0-|--
D ---|-----|-------|-----|-------|-----|-------|-----|-------|-----|--
A -3-|-----|-3---3-|-----|-4---4-|-----|-3---3-|-----|-3---3-|-----|-3
E ---|-----|-------|-----|-------|-----|-------|-----|-------|-----|--

G -0---|-0-0-|---1---|-1-1-|---0---|-0-0-|---0---|-0-0-|---0---|-0-0-|
D -----|-----|-------|-----|-------|-----|-------|-----|-------|-----|
A ---3-|-----|-4---4-|-----|-3---3-|-----|-3---3-|-----|-3---3-|-----|
E -----|-----|-------|-----|-------|-----|-------|-----|-------|-----|

G ---1---|-1-1-|---0---|-0-0-|-----|-------|-------|---|---0---|-0-0-|
D -------|-----|-------|-----|-----|-------|-------|---|-------|-----|
A -4---4-|-----|-3---3-|-----|-0-1-|---0---|-----0-|-2-|-3---3-|-----|
E -------|-----|-------|-----|-----|-3---1-|-3-2---|---|-------|-----|

G ---0---|-0-0-|---1---|-1-1-|---0---|-0-0-|---0---|-0-0-|---0---|-0-0
D -------|-----|-------|-----|-------|-----|-------|-----|-------|----
A -3---3-|-----|-4---4-|-----|-3---3-|-----|-3---3-|-----|-3---3-|----
E -------|-----|-------|-----|-------|-----|-------|-----|-------|----

G -|---1---|-1-1-|---0---|-0-0-|---0---|-0-0-|---0---|-0-0-|---1---|-1
D -|-------|-----|-------|-----|-------|-----|-------|-----|-------|--
A -|-4---4-|-----|-3---3-|-----|-3---3-|-----|-3---3-|-----|-4---4-|--
E -|-------|-----|-------|-----|-------|-----|-------|-----|-------|--

G -1-|---0---|-0-0-|-----|-------|-------|---|---0---|-0-0-|---0---|-0
D ---|-------|-----|-----|-------|-------|---|-------|-----|-------|--
A ---|-3---3-|-----|-0-1-|---0---|-----0-|-2-|-3---3-|-----|-3---3-|--
E ---|-------|-----|-----|-3---1-|-3-2---|---|-------|-----|-------|--

G -0-|---1---|-1-1-|---0---|-0-0-|---0---|-0-0-|---0---|-0-0-|---1---|
D ---|-------|-----|-------|-----|-------|-----|-------|-----|-------|
A ---|-4---4-|-----|-3---3-|-----|-3---3-|-----|-3---3-|-----|-4---4-|
E ---|-------|-----|-------|-----|-------|-----|-------|-----|-------|

G -1-1-|---0---|-0-0-|---0---|-0-0-|---0---|-0-0-|---1---|-1-1-|---0--
D -----|-------|-----|-------|-----|-------|-----|-------|-----|------
A -----|-3---3-|-----|-3---3-|-----|-3---3-|-----|-4---4-|-----|-3---3
E -----|-------|-----|-------|-----|-------|-----|-------|-----|------

G -|-0-0-|-----|-------|-------|---|-------|-----|-------|-----|------
D -|-----|-----|-------|-------|---|---5---|-5-5-|---5---|-5-5-|---6--
A -|-----|-0-1-|---0---|-----0-|-2-|-3---3-|-----|-3---3-|-----|-4---4
E -|-----|-----|-3---1-|-3-2---|---|-------|-----|-------|-----|------

G -|-----|-------|-----|------|------|------|------|------|------|----
D -|-6-6-|---5---|-5-5-|------|------|------|------|------|------|----
A -|-----|-3---3-|-----|------|------|------|------|------|------|----
E -|-----|-------|-----|------|------|------|------|------|------|----

G -----|---0---|-0-0-|---0---|-0-0-|---1---|-1-1-|---0---|-0-0-|---0--
D -----|-------|-----|-------|-----|-------|-----|-------|-----|------
A -----|-3---3-|-----|-3---3-|-----|-4---4-|-----|-3---3-|-----|-3---3
E -----|-------|-----|-------|-----|-------|-----|-------|-----|------

G -|-0-0-|---0---|-0-0-|---1---|-1-1-|---0---|-0-0-|-----|-------|----
D -|-----|-------|-----|-------|-----|-------|-----|-----|-------|----
A -|-----|-3---3-|-----|-4---4-|-----|-3---3-|-----|-0-1-|---0---|----
E -|-----|-------|-----|-------|-----|-------|-----|-----|-3---1-|-3-2

G ---|---|---0---|-0-0-|---0---|-0-0-|---1---|-1-1-|---0---|-0-0-|---0
D ---|---|-------|-----|-------|-----|-------|-----|-------|-----|----
A -0-|-2-|-3---3-|-----|-3---3-|-----|-4---4-|-----|-3---3-|-----|-3--
E ---|---|-------|-----|-------|-----|-------|-----|-------|-----|----

G ---|-0-0-|---0---|-0-0-|---1---|-1-1-|---0---|-0-0-|---0---|-0-0-|--
D ---|-----|-------|-----|-------|-----|-------|-----|-------|-----|--
A -3-|-----|-3---3-|-----|-4---4-|-----|-3---3-|-----|-3---3-|-----|-3
E ---|-----|-------|-----|-------|-----|-------|-----|-------|-----|--

G -0---|-0-0-|---1---|-1-1-|---0---|-0-0-|-----|-------|-------|---|--
D -----|-----|-------|-----|-------|-----|-----|-------|-------|---|--
A ---3-|-----|-4---4-|-----|-3---3-|-----|-0-1-|---0---|-----0-|-2-|-3
E -----|-----|-------|-----|-------|-----|-----|-3---1-|-3-2---|---|--

G -0---|-0-0-|---0---|-0-0-|---1---|-1-1-|---0---|-0-0-|---0---|-0-0-|
D -----|-----|-------|-----|-------|-----|-------|-----|-------|-----|
A ---3-|-----|-3---3-|-----|-4---4-|-----|-3---3-|-----|-3---3-|-----|
E -----|-----|-------|-----|-------|-----|-------|-----|-------|-----|

G ---0---|-0-0-|---1---|-1-1-|---0---|-0-0-|---0---|-0-0-|---0---|-0-0
D -------|-----|-------|-----|-------|-----|-------|-----|-------|----
A -3---3-|-----|-4---4-|-----|-3---3-|-----|-3---3-|-----|-3---3-|----
E -------|-----|-------|-----|-------|-----|-------|-----|-------|----

G -|---1---|-1-1-|---0---|-0-0-|-----|-------|-------|---|---0---|-0-0
D -|-------|-----|-------|-----|-----|-------|-------|---|-------|----
A -|-4---4-|-----|-3---3-|-----|-0-1-|---0---|-----0-|-2-|-3---3-|----
E -|-------|-----|-------|-----|-----|-3---1-|-3-2---|---|-------|----

G -|---0---|-0-0-|---1---|-1-1-|---0---|-0-0-|---0---|-0-0-|---0---|-0
D -|-------|-----|-------|-----|-------|-----|-------|-----|-------|--
A -|-3---3-|-----|-4---4-|-----|-3---3-|-----|-3---3-|-----|-3---3-|--
E -|-------|-----|-------|-----|-------|-----|-------|-----|-------|--

G -0-|---1---|-1-1-|---0---|-0-0-|---0---|-0-0-|---0---|-0-0-|---1---|
D ---|-------|-----|-------|-----|-------|-----|-------|-----|-------|
A ---|-4---4-|-----|-3---3-|-----|-3---3-|-----|-3---3-|-----|-4---4-|
E ---|-------|-----|-------|-----|-------|-----|-------|-----|-------|

G -1-1-|---0---|-0-0-|-----|-------|-------|---|---0---|-0-0-|---0---|
D -----|-------|-----|-----|-------|-------|---|-------|-----|-------|
A -----|-3---3-|-----|-0-1-|---0---|-----0-|-2-|-3---3-|-----|-3---3-|
E -----|-------|-----|-----|-3---1-|-3-2---|---|-------|-----|-------|

G -0-0-|---1---|-1-1-|---0---|-0-0-|-------|-------|-------|---0---|-0
D -----|-------|-----|-------|-----|-------|-------|-------|-------|--
A -----|-4---4-|-----|-3---3-|-----|-0-1---|-0-----|---0-2-|-3---3-|--
E -----|-------|-----|-------|-----|-----3-|---1-3-|-2-----|-------|--

G -0-|---0---|-----|---1---|-1-1-|---0---|-----|---0---|---0---|---0--
D ---|-------|-5-5-|-------|-----|-------|-5-5-|-------|-------|------
A ---|-3---3-|-----|-4---4-|-----|-3---3-|-----|-3---3-|-3---3-|-3---3
E ---|-------|-----|-------|-----|-------|-----|-------|-------|------

G -|---0---|---0---|---0---|---0---|---0---|---0---|---0---|---0---|--
D -|-------|-------|-------|-------|-------|-------|-------|-------|--
A -|-3---3-|-3---3-|-3---3-|-3---3-|-3---3-|-3---3-|-3---3-|-3---3-|-3
E -|-------|-------|-------|-------|-------|-------|-------|-------|--

G -0---|---0---|
D -----|-------|
A ---3-|-3---3-|
E -----|-------|





Engine © 1999 - 2019 - Land63.com. e-mail:  Privacy | Norme sulla legalità