Informativa
Questo sito raccoglie dati statistici anonimi sulla navigazione, mediante cookie installati da terze parti autorizzate, rispettando la privacy dei tuoi dati personali e secondo le norme previste dalla legge. Continuando a navigare su questo sito, cliccando sulla pagina o semplicemente scrollando la pagina verso il basso, accetti il servizio, gli stessi cookie e rimuovi il messaggio.

    Maggiori informazioni.
A12
Home Tutti A-Z Testi Italiani A-Z Testi Stranieri A-Z Chiedi allo staff Drrunaway 19 Anni Fa
 Grateful Dead
Nuovi Artisti
1. Michael McDonald
2. Toninho Horta
3. Smooth Jazz vari
4. Double
5. Bronski Beat
6. Al Jarreau
7. Etta James
8. The Queen
9. The Isley Brothers
10. Spyro Gyra
11. Sister Sledge
12. Kool & the Gang
13. KC & the Sunshine Band
14. Earth Wind & Fire
15. Joe Sentieri
Nuovi Testi/Accordi
1. You Belong To Me
2. Sweet Freedom
3. Tuesday Heartbreaker
4. Love two times
5. It's just a thoght chords
6. I Say a little prayer
7. Cocaine - Clapton
8. Gigi (Concato) - vs. Live
9. Bejo Partido
10. Moby Dick



GRATEFUL DEAD - Tablatura - Ripple
Gestisci
So this is my first fledgling attempt at tabbing. Any constructive
criticism will be
appreciated. The rhythm and bars may be a little hard to decipher, since
there is some
syncopation in the melody, i.e., lead-ins to the one beat, but bear with
me. Again, criticism is
welcome here, too, and if there is a faq or instruction on writing tab,
I would be interested in
directions to it.

The melody line is mixed in among the chords and the trick is getting
the melody note to
stand out over the rest of the chord by either hitting that string a
little harder, or omitting the
notes on the higher strings so they don't drown it out. Play around with
it, that's what I do. I tried
to approximate the strumming under te melody as best i could -- You
know the groove, though,
it has a slow shuffle feel, with the bass at 1 and 3 and the chords on
the 2 beat and right before three if you think of it in terms of
4/4...the idea is
to get as many of those in as you can without sacrificing the melody
line.
Anyway, here it is as I play it:
Prost
Matt

Ripple intro, Grateful Dead, American Beauty Album,

|-----------------------|-----3--------------|------------------------
|-----------------------|-----0-----0--1--0--|------------------------
|-----------------------|--0--0-----0--0--0--|------------------------
|--------------------0--|-----0-----0--2--0--|------------------------
|--2-----2-----3--------|-----2--------------|------------------------
|-----------------------|-----3--------------|------------------------


---------------------|----------------------|-------------------------
------------0-----0--|-----1-------------1--|-------------------------
------0--0-----2-----|--0--0-------------0--|-------------------------
---------------------|-----2--------0h2--2--|-------------------------
---------------------|-----3-------------3--|-------------------------
3--------------------|----------------------|-------------------------


--------------------------|-------------------|-----------------------
------1-------------------|-----1-------------|-----------------------
------0----------------0--|-----0-----0h2--0--|-----------------------
------2-----------0h2-----|-----2-------------|-----------------------
3-----------3-------------|--3--3-------------|-----------------------
--------------------------|-------------------|-----------------------


------------------|-----------------|-----------------|---------------
---1--------------|--1--------------|-----------------|---------------
---0-----------0--|--0--0-----------|-----------------|---------------
---2-----0--2-----|--2--------2-----|--------------0--|---------------
3--3--------------|--3--------------|--2--2-----3-----|---------------
------------------|--------------0--|--3--------------|---------------


---3--------------|-----------------------|----------------|----------
---0-----0--1--0--|-----------0--------0--|-----1-------1--|----------
0--0-----0--0--0--|--0-----0-----2--------|--0--0-------0--|----------
---0-----0--2--0--|-----------------------|-----2--0h2--2--|----------
---2--------------|-----------------------|-----3-------3--|----------
---3--------------|-----------------------|----------------|----------


------------|--------------------|-----2-------------------|----------
------------|--0-----0-----1-----|-----3-------------------|----------
---0--0--2--|--0-----0-----0-----|--2--2-------------------|----------
---2--0--2--|--0-----0-----2-----|-----0-----------------0h|----------
3--3--2--0--|--2-----------------|-------------------------|----------
------------|--3--3--------------|-------------------------|----------


---------------|-----1----------------|-------------------------------
---1-----1-----|-----0----------------|-------------------------------
---0--0--2--0--|--0--0-------------0--|-------------------------------
2--2--0--2--0--|-----0--------0h2-----|-------------------------------
------------2--|-----2----------------|-------------------------------
---------------|-----3----------------|-------------------------------

if my words could glow
-------------------------|-----1--------------|-----------------------
-------------------------|-----0-----0--1--0--|-----------------------
-------------------------|--0--0-----0--0--0--|-----------------------
---------------------0---|-----0-----0--2--0--|-----------------------
----2------2------3------|-----2--------------|-----------------------
3------------------------|-----3--------------|--3--------------------



== Created with the a shareware version of the BUCKET 'O TAB ==
== tablature creation software for Windows ==
== For more information: ==
== US Mail: The Bucket, 3176-B5 Summit Square Dr., Oakton, VA 22124 ==





Engine © 1999 - 2022 - Land63.com. e-mail:  Privacy | Norme sulla legalità