Informativa
Questo sito raccoglie dati statistici anonimi sulla navigazione, mediante cookie installati da terze parti autorizzate, rispettando la privacy dei tuoi dati personali e secondo le norme previste dalla legge. Continuando a navigare su questo sito, cliccando sulla pagina o semplicemente scrollando la pagina verso il basso, accetti il servizio, gli stessi cookie e rimuovi il messaggio.

    Maggiori informazioni.
A9
Home Tutti A-Z Testi Italiani A-Z Testi Stranieri A-Z Chiedi allo staff Drrunaway 19 Anni Fa
 Green Day
Nuovi Artisti
1. Michael McDonald
2. Toninho Horta
3. Smooth Jazz vari
4. Double
5. Bronski Beat
6. Al Jarreau
7. Etta James
8. The Queen
9. The Isley Brothers
10. Spyro Gyra
11. Sister Sledge
12. Kool & the Gang
13. KC & the Sunshine Band
14. Earth Wind & Fire
15. Joe Sentieri
Nuovi Testi/Accordi
1. You Belong To Me
2. Sweet Freedom
3. Tuesday Heartbreaker
4. Love two times
5. It's just a thoght chords
6. I Say a little prayer
7. Cocaine - Clapton
8. Gigi (Concato) - vs. Live
9. Bejo Partido
10. Moby Dick



GREEN DAY - Accordi - When I Come Around
Gestisci
--Key----Delay----Bpm: 72---Guitar--Piano-
All the best songs on album we're tabbed already, but here's one that's really
fun to play...Turn down your tone and crank the distortion:

|--------------------------------------------
|-------------------------------------------- The rhythm changes later, but
|-------------------------------------------- it's not hard to work out.
|------4------4--------11-------13------9----
|----4-4------4--------11-------13------9----
|--------2-2--2----9-9--9----11-11----7-7----

Chorus: |---------------------------------
|---------------------------------
|---------------------------------
|----6-6-6-6-6-6-6-6/-9-9-9-9-9--- etc.
|----6-6-6-6-6-6-6-6/-9-9-9-9-9---
|----4-4-4-4-4-4-4-4/-7-7-7-7-7---

-After the 2nd chorus add this little riff which is strangly reminiscent of
"Today":
|----------------------------------------------------
|----------------------------------------------------
|-11----11----13----13----------11----11------------- or something
|----11----11----11----11----13----13---------------- like that
|----------------------------------------------------
|----------------------------------------------------

- And there you go. take 'er easy...



neat chords, neat melody. chords are played in barre style (except
for the a chord in the chorus).

when i come around, green day


i heard you crying loud
all the way across town
etc.

chorus

no time to search the world around
'cause you know where i'll be found
when i come around

i don't know the solo, but it kinda sounds like the intro to 'today'
by smashing pumpkins.

roland
--
roland pgp key available through finger

: This is what I saw off of SNL:

: Main Riff:
:
: I saw you coming round
: x x G x x D x Em C

: Chorus:
: ...that makes the ..world go round
:


: On the x just Palm mute.
: On the solo just bar the e,b,g strings at the 3rd fret and
: apreggiate them and use pinky to play 5 or 6 on the e string
: Then it look like the Em chord and then the A but I'm, not sure.

: G:
: --4-
: --5-
: --5-
: (E)--3-

: D:
: --7-
: --7-
: --7-
: --5-
: --x-

: Em: --8-
: --9-
: --9-
: --7-
: --x-

: A: --2-
: --2-
: --0-
: --x-

: C: --5-
: --5-
: --5-
: --3-
: --x-

: ( you know, its a bitch to tab this all in

I think he means the solo is like this

-3-----5-----3-----5-----3--3-3-3-5-3-5-3-5-3-----
---3-----3-----3-----3----3-3-3-3-3-3-3-3-3-3/5b6
-----0-----0-----0-----0---00-0-0-0-0-0-0-0-0---
-------------------------------------------------
-------------------------------------------
--------------------------------
( and the lyrics are like "No time to chase the world around , cuase ya
know where I'll be found! when i come around"
if you care..





Engine © 1999 - 2020 - Land63.com. e-mail:  Privacy | Norme sulla legalità