Informativa
Questo sito raccoglie dati statistici anonimi sulla navigazione, mediante cookie installati da terze parti autorizzate, rispettando la privacy dei tuoi dati personali e secondo le norme previste dalla legge. Continuando a navigare su questo sito, cliccando sulla pagina o semplicemente scrollando la pagina verso il basso, accetti il servizio, gli stessi cookie e rimuovi il messaggio.

    Maggiori informazioni.
A3
Home Tutti A-Z Testi Italiani A-Z Testi Stranieri A-Z Chiedi allo staff Drrunaway 19 Anni Fa
 Stormy Six
Nuovi Artisti
1. Michael McDonald
2. Toninho Horta
3. Smooth Jazz vari
4. Double
5. Bronski Beat
6. Al Jarreau
7. Etta James
8. The Queen
9. The Isley Brothers
10. Spyro Gyra
11. Sister Sledge
12. Kool & the Gang
13. KC & the Sunshine Band
14. Earth Wind & Fire
15. Joe Sentieri
Nuovi Testi/Accordi
1. You Belong To Me
2. Sweet Freedom
3. Tuesday Heartbreaker
4. Love two times
5. It's just a thoght chords
6. I Say a little prayer
7. Cocaine - Clapton
8. Gigi (Concato) - vs. Live
9. Bejo Partido
10. Moby Dick



STORMY SIX - Accordi - Stalingrado
Gestisci
--Key----Delay----Bpm: 72---Guitar--Piano-
--------
hey giò febbraio 2000

Stalingrado-stormy six

per questo pezzo sono andato a memoria
la suonavo quando ero ragazzino, dopo vent'anni
spero di aver trascritto il testo correttamente
forse la donna di granito sulle barricate ride e non vive)
l'introduzione non è proprio degli stormy six ma
è una versione che io eseguivo col mio gruppo che
gli si avvicina molto.Occhio al mi- mi-5# mi- è velocissimo
purtroppo non ricordo il solo finale, ma era una scala
lunga di mi-

intro tempo di valzer
mi- do re la-
|---0-0---0-0---0-0----0-0---2-2-----------0-0---0-0|
|---0-0---0-0---1-1----1-1---3-3-----------1-1---1-1|
|---0-0---0-0---0-0----0-0---2-2-----------2-2---2-2|
|--------------------2-----0-----0-4-2-0-------2----|
|-------2-----3--------------------------0----------|
|-0-------------------------------------------------|

mi- do re la-
|---0-0---0-0---0-0----0-0---2-2-----------0-0------------|
|---0-0---0-0---1-1----1-1---3-3-----------1-1------------|
|---0-0---0-0---0-0----0-0---2-2-----------2-2------------|
|--------------------2-----0-----0-4-2-0------------------|
|-------2-----3--------------------------0-----0-3-2------|
|-0--------------------------------------------------3-0--|
mi- mi-5# mi-
|-----0-0-0-----0---|
|----0--0-1-----0---|
|---0---0-0-----0---|
|--2----2-2-----2---|
|-2-----2-2-----2---|
|-------------------|

mi- mi-5# mi- do re attacca subito il canto
|-0-----0-0---0---0--2|
|-0-----0-1---0---1--3|
|-0-----0-0---0---0--2|
|-2-----2-2---2---2--0|
|-2-----2-2---2---3--0|
|---------------------|

do re mi- mi-5# mi- mi-
Fame e macerie sotto i mortai
Do re mi-
Come l'acciaio resiste la città
Do re la-
Strade di Stalingrado di sangue siete lastricate
mi- do re la-
Vive una donna di granito su mille barricate
Mi- la mi- la mi-
Sulla sua strada gelata la croce uncinata lo sa
La mi- la mi-
D'ora in poi troverà Stalingrado in ogni città
mi- la mi-
La la la la la la la la la la la
mi-
la la la la la la la la la la la
mi- do mi-
l'orchestra fa ballare gli ufficiali nei caffè
re do
l'inverno mette il gelo nelle ossa
mi- do mi-
ma dentro le prigioni l'aria brucia come se
re do
cantasse il coro dell'armata rossa

solo violino mi- do 5 o 6 volte poi mi- mi-5# mi- mi-
do re mi- mi- mi-5# mi- mi-
la radio al buio e sette operai
do re mi-
sette bicchieri che brindano a Lenin
do re la-
e Stalingrado arriva nella cascina e nel fienile
mi- do re la-
vola un berretto un uomo ride e prepara il suo fucile
Mi- la mi- la mi-
Sulla sua strada gelata la croce uncinata lo sa
La mi- la mi-
D'ora in poi troverà Stalingrado in ogni città
mi- la mi-
La la la la la la la la la la la
mi-
la la la la la la la la la la la

mi- la mi- la a sfumare con un solo di chitarra acustica





Engine © 1999 - 2018 - Land63.com. e-mail:  Privacy | Norme sulla legalità