Informativa
Questo sito raccoglie dati statistici anonimi sulla navigazione, mediante cookie installati da terze parti autorizzate, rispettando la privacy dei tuoi dati personali e secondo le norme previste dalla legge. Continuando a navigare su questo sito, cliccando sulla pagina o semplicemente scrollando la pagina verso il basso, accetti il servizio, gli stessi cookie e rimuovi il messaggio.

    Maggiori informazioni.
A5
Home Tutti A-Z Testi Italiani A-Z Testi Stranieri A-Z Chiedi allo staff Drrunaway 19 Anni Fa
 I Pooh
Nuovi Artisti
1. Michael McDonald
2. Toninho Horta
3. Smooth Jazz vari
4. Double
5. Bronski Beat
6. Al Jarreau
7. Etta James
8. The Queen
9. The Isley Brothers
10. Spyro Gyra
11. Sister Sledge
12. Kool & the Gang
13. KC & the Sunshine Band
14. Earth Wind & Fire
15. Joe Sentieri
Nuovi Testi/Accordi
1. You Belong To Me
2. Sweet Freedom
3. Tuesday Heartbreaker
4. Love two times
5. It's just a thoght chords
6. I Say a little prayer
7. Cocaine - Clapton
8. Gigi (Concato) - vs. Live
9. Bejo Partido
10. Moby Dick



I POOH - Tablatura - Dove Stò Domani
Gestisci
DOVE STO DOMANI – Pooh

Solo chitarre

E |-12-|-13-12-10-12-10-|-13-12----|-------12-10-|-12-13-15-|
B |----|----------------|-------13-|-12-13-------|----------|
G |----|----------------|----------|-------------|----------|
D |----|----------------|----------|-------------|----------|
A |----|----------------|----------|-------------|----------|
E |----|----------------|----------|-------------|----------|
DO MI7 LAm FAm DO SOL7 Terrò la bocca chiusa
C

cambia la luna e sono in più, non c'è che da decidersi che non funziona
E7 Am Fm

più, farò una grossa spesa e ricomincerò. Basso/Batteria Sarò di un'altra
C G C

casa, cambio telefono e città, gli amici da dividerci: sarà una novità,
E7 A Fm

la mia valigia pesa ma tutto non ci sta. Coro Prendo soltanto la mia vita
C G C G

con me, cambiano posto i giorni miei, col resto fanne ciò che vuoi
Am Fm C D9 F G

E se domani mi cercassero qui non dire a tutti: «Non lo so!» tu lo sai
Eb Bb Cm G#m6 Eb

bene dove sto, doma--ni. Voce solista Farò i miei viaggi ancora con la
F9 G# Eb G C

compagna che tu sai, da solo non so vivere e non ne ha colpa lei, ma tu
E7 A Fm C

comunque sia, non ti buttare via. Coro Prendo soltanto la mia vita con
G C G

me, sappiamo tutti e due perchè, prenditi tempo e pensa a te.
Am Fm C D9 F G

Io questa casa lo so sempre dov'è, anche se il conto è chiuso ormai,
Eb Bb Cm G#m6 Eb

dimmi ogni tanto cosa fai.
FA9 SOL# MIb SOL Basso:

G ---------|---------|---------|---------|---------|-------|-------|---------|---------|
D ---------|---------|---------|---------|---------|-------|-------|---------|---------|
A ---7-7-7-|-8-7-5-3-|-5-7-7---|---7-7-7-|-8-7-5-3-|-6-5-3-|-6-5-3-|-6-5-3---|---7-7-7-|
E -3-------|---------|-------3-|-5-------|---------|-------|-------|-------3-|-3-------|
C E7 Am Fm C

G ---------|-------|-------|
D ---------|-------|-------|
A -6:7-5-3-|-5-2---|-2-3-5-|
E ---------|-----3-|-------| Coro Prendo soltanto la mia vita con me, cambiano
G C G Am

segno i giorni miei, ma se hai bisogno tu lo sai cheeee: da questa casa
Fm C D9 F G Eb

puoi fidarti di me, strade diverse da oggi in poi, ma dimmi sempre come
Bb Cm G#m6 Eb F9

staià
G# Eb





Engine © 1999 - 2020 - Land63.com. e-mail:  Privacy | Norme sulla legalità